Let It Be

The Beatles

Am
123
X02210
Am/G
1234
3X221X
Bb
234
X13331
C
123
X32010
C/E
123
032010
Em/F
1
1XX000
F
234
133211
F6
123
1X021X
G
123
320003
Tono: G
[Intro] C  G  Am  F  C  G  F  Em/F  F6  C

#1t1#   C       G     Am        F   F6  C
#1t2#E|---------------------------------0---0----|
B|-1---1---0---0---1---1---1---3---1---1----|
G|-0---0---0---0---2---2---2---2-----0---0--|
D|---2---2---0---0---2-------3---3----------|
A|-3---3-----------0---0-----------3---3----|
E|---------3---3---------3-1---1------------|#/1t2##/1t1#

#2t1#   G       F   Em/F F6   C
#2t2#E|---------1---0----------------------------|
B|-3---3---1---0----3----1---1--------------|
G|-4---4---2---0----2----0---0--------------|
D|---5---5----------3----2-2---2------------|
A|-----------------------3---3--------------|
E|-3---3---1-1------------------------------|#/2t2##/2t1#

[Primeira Parte]

        C              G
When I find myself in times of trouble
 Am          F           F6
Mother Mary comes to me
  C                G              F Em/F F6 C
Speaking words of wisdom, let it be

    C              G
And in my hour of darkness
         Am                F           F6
She is standing right in front of me
  C                G              F Em/F F6 C
Speaking words of wisdom, let it be

[Refrão]

#3t1#   Am      Am/G    F       C
#3t2#E|----------------------------------------------------|
B|-1---1---1---1---1---1---1---1----------------------|
G|-2---2---2---2---2---2---0---0----------------------|
D|---2---2---2---2---3---3---2---2--------------------|
A|-0---0-------------------3---3----------------------|
E|---------3---3---1---1------------------------------| #/3t2##/3t1#

#4t1#   C       G       F    Em/F F6     C  
#4t2#E|-----------------1----0-----------------------------|
B|-1---1---0---0---1----0----3------1---1-------------|
G|-0---0---0---0---2----0----2------0---0-------------|
D|---2---2---0---0-----------3------2-2---2-----------|
A|-3---3----------------------------3---3-------------|
E|---------3---3---1--1-------------------------------|#/4t2##/4t1#

          Am         Am/G       F          C
Let it   be, let it be, let it be, let it be
                  G              F Em/F F6 C
Whisper words of wisdom, let it be

[Segunda Parte]

#5t1#   C        G          Am        F     F6
#5t2#E|-----x---------x----------x---------x---------------|
B|---1-x-1-----0-x-0------1-x-1-----1-x-3-------------|
G|---0-x-0-----0-x-0------2-x-2-----2-x-2-------------|
D|---2-x-2-----0-x-0------2-x-2-----3-x-3-------------|
A|-3---x---3-----x------0---x---------x---------------|
E|-----x-----3---x----3-----x---3-1---x----1----------|#/5t2##/5t1#

#6t1#   C         G         F    Em/F F6    C
#6t2#E|---0-x-0-------x-----1----0-------------------------|
B|---1-x-1-----3-x-3---1----0----3-----1--------------|
G|---0-x-0-----4-x-4---2----0----2-----0--------------|
D|-----x-------5-x-5-------------3-----2--------------|
A|-3---x---3-----x---------------------3--------------|
E|-----x-----3---x---3-1--1---------------------------|#/6t2##/6t1#

      C              G
And when the broken-hearted people
 Am            F           F6
Living in the world agree
  C                  G           F Em/F F6 C
There will be an answer, let it be

      C                    G
For though they may be parted
           Am                  F           F6
There is still a chance that they will see
  C              G               F Em/F F6 C
There will be an answer, let it be

[Refrão]

          Am         Am/G       F          C
Let it   be, let it be, let it be, let it be
                     G           F Em/F F6 C
There will be an answer, let it be

          Am         Am/G       F          C
Let it   be, let it be, let it be, let it be
                  G              F Em/F F6 C
Whisper words of wisdom, let it be

( F  Em/F  F6  C  Bb  Am  G  F  C/E )
( F  Em/F  F6  C  Bb  Am  G  F  C/E )

[Solo] C  G  Am  F  C  G  F  Em/F  F6  C

#7t1#   F    Em/F F6   C    Bb   Am   G    F    C/E
#7t2#E|-1----0-----------------------------------|
B|-1----0----3----1----3----1----0---------1|
G|-2----0----2----0----3----2----0----2----0|
D|-----------3----2----3----2----0----3----2|
A|----------------3----1----0---------3----3|
E|-1--1--------------------------3----1----0|#/7t2##/7t1#

#8t1#[Parte 1 de 8]
        C           G   
#8t2#E|------------------------------------------|
B|------------------------------------------|
G|------------------------------------------|
D|---------2p0------------------------------|
A|-----3-3-----3-3/5-5----------------------|
E|-3h5--------------------------------------|#/8t2##/8t1#

[Parte 2 de 8]

#9t1#         Am          F
#9t2#E|------------------------------------------|
B|------------------------------------------|
G|------------------------------------------|
D|-------5-7p5------------------------------|
A|-3h5/7-------7p5\3------------------------|
E|------------------------------------------|#/9t2##/9t1#

[Parte 3 de 8]

#10t1#    C                G
#10t2#E|------------------------------------------|
B|----------------------8-8b10r8------------|
G|----------------5-7/9----------7b9r7-5----|
D|-----5-5-5--5h7---------------------------|
A|-5/7--------------------------------------|
E|------------------------------------------|#/10t2##/10t1#

[Parte 4 de 8]

#11t1#    F             C
#11t2#E|------------------------------------------|
B|------------------------------------------|
G|-7b9r7p5----------------------------------|
D|---------7-5------------------------------|
A|-------------7----------------------------|
E|---------------8--------------------------|#/11t2##/11t1#

[Parte 5 de 8]

#12t1#         C             G
#12t2#E|------------------------------------------|
B|------------------------------------------|
G|-------------------7/9-7-5h7--------------|
D|-------------5/7-5-----------7------------|
A|-----5/7-3h5------------------------------|
E|-3h5--------------------------------------|#/12t2##/12t1#

[Parte 6 de 8]

#13t1#        Am                 F
#13t2#E|------------------------------------------|
B|---------8-8b10r8-------------------------|
G|-----7b9----------7b9r8-5-----------------|
D|-5h7--------------------------------------|
A|------------------------------------------|
E|------------------------------------------|#/13t2##/13t1#

[Parte 7 de 8]

#14t1#        C                   G       F
#14t2#E|---------8----------10b12-10-8------------|
B|-----------8b10r8----------------8--------|
G|-----7/9----------9------------9----------|
D|-5h7--------------------------------------|
A|------------------------------------------|
E|------------------------------------------|#/14t2##/14t1#

[Parte 8 de 8]

#15t1#                       C
#15t2#E|------------------------------------------|
B|---8b10r8---------------------------------|
G|-9--------7b8r7-5h7-5---------------------|
D|------------------------------------------|
A|------------------------------------------|
E|------------------------------------------|#/15t2##/15t1#

[Refrão]

          Am         Am/G       F          C
Let it   be, let it be, let it be, let it be
                  G              F Em/F F6 C
Whisper words of wisdom, let it be

[Segunda Parte]

      C                  G
And when the night is cloudy
           Am                 F           F6
There is still a light that shines on me
  C            G              F Em/F F6 C
Shine until tomorrow, let it be

   C              G
I wake up to the sound of music
 Am          F           F6
Mother Mary comes to me
  C                G              F Em/F F6 C
Speaking words of wisdom, let it be

[Refrão]

          Am         Am/G       F          C
Let it   be, let it be, let it be, let it be
                     G           F Em/F F6 C
There will be an answer, let it be
          Am         Am/G       F          C
Let it   be, let it be, let it be, let it be
                  G              F Em/F F6 C
Whisper words of wisdom, let it be.

( F Em/F F6 C Bb Am G F C )

[Final]

#16t1#   F    Em/F F6   C    Bb   Am   G    F    C/E
#16t2#E|-1----0-----------------------------------|
B|-1----0----3----1----3----1----0---------1|
G|-2----0----2----0----3----2----0----2----0|
D|-----------3----2----3----2----0----3----2|
A|----------------3----1----0---------3----3|
E|-1--1--------------------------3----1----0|#/16t2##/16t1#
Composición: John Lennon / Paul McCartneyColaboración y revisión: Getúlio VasconcelosCarlos LeandraLuis ValençaCecília Dornellesy más 1
videoclase Let It Be (aula de violão completa)