C
123
X32010
D
123
XX0232
G
123
320003
Tono: G
Intro: G G C C G G C


Riff 1

E|--------------------------------
B|-----12--------12-------14------
G|--12----14-12----14-12----12-12-
D|--------------------------------
A|--------------------------------
E|--------------------------------

E|----------------------------------
B|-12-------------------------------
G|---14-----------------------------
D|----------------------------------
A|----------------------------------
E|----------------------------------


Riff 2
Play this but you can work out how 
many notes.

E|------------------------------
B|-----15-15-15-15-15-12-12-12--
G|------------------------------
D|------------------------------
A|------------------------------
E|------------------------------

E|-----------------------------------------------| 
B|-----------------------------------------------| 
G|14-14-14---------------------------------------| 
D|-----------------------------------------------| 
A|-----------------------------------------------| 
E|-----------------------------------------------| 


      G
You're a liar
                      C
At least all of your friends are
     G
So am I
               C
Just typically drowned in my car

        G
It's my party
               C
I'll cry till the end
             G
You must try harder
                      C
Than kissing all of my friends
You

Chorus
G It takes a bit more C Yeah it takes a bit more than you G It takes a bit more C Yeah it takes a bit more than you G And you're alive C At least as far as I can tell you are G And so am I C You beat me down and then we're back to my car G It's so ironic C How it's only been a year G It's not my fault C That I fucked everybody here Chorus G It takes a bit more C Yeah it takes a bit more than you G It takes a bit more C Yeah it takes a bit more than you Break: C Em D C, G,D And I say Do you wanna dance, do you wanna dance, do you wanna dance In the bar at the back of the hall? And I say Do you wanna dance, do you wanna dance, do you wanna dance Dance in the back of the hall? Chorus 2x: G It takes a bit more C Yeah it takes a bit more than you G It takes a bit more C Yeah it takes a bit more than you
Composición: Colaboración y revisión: Gustavo Nieri

Utilizamos cookies para personalizar sua experiência. Ao acessar o site, você concorda com a nossa Política de Privacidade.