Coração Apertado

Thaeme e Thiago

A
123
X02220
Am
123
X02210
C
123
X32010
D
123
XX0232
Dm
123
XX0231
Em
12
022000
F
234
133211
G
123
320003
Tono: G
Intro: C  G  Dm  F  G


E|--------------------------------
B|----------------------5-8-------
G|-5-5---5-5-5---5-5-5--5-5--4-4--
D|-5-5---5-5-5---5-5-5-------5-5--
A|--------------------------------
E|--------------------------------

E|--------------------| 
B|----------------5-8-| 
G|-4-4-4---4-4-4--5-5-| 
D|-5-5-5---5-5-5------| 
A|--------------------| 
E|--------------------| 



E|--------------------------------
B|-6-5-3--6-5-----6-----6---------
G|-5-5-5--5-5-5-------5-----5-4-5-
D|------------5-----8-----8-------
A|--------------------------------
E|--------------------------------

E|--------------------| 
B|--------------------| 
G|6-7-----------------| 
D|--------------------| 
A|--------------------| 
E|--------------------| 


 C
Hoje eu não to afim de sair
 G
Sem você não sei me divertir
 Dm                               
Mas eu fico pensando e se eu não 
F   G
for

C
Eu to vendo as horas passar
G
E aqui dentro tudo faz lembrar
 Dm                          
Tem seu cheiro grudado no meu 
       F  G
cobertor

 Dm                 F
E já eh madrugada, já bate o 
desespero
 Dm                         F     
Não vou ficar em casa, pra ver se 
          G
eu te esqueço

 C
Vai que a gente se encontra de novo
 G
Numa balada no meio do povo
 Dm                 F         G
Eu meio travado, coração apertado

 C
Se der um sorriso não vou resistir
G Sua boca dizendo te quero pra mim Dm F Que me esperou, que tava com G Am F G saudade amor Intro 2x: C G Dm F G C Hoje eu não to afim de sair G Sem você não sei me divertir Dm F G Mas eu fico pensando e se eu não for C Eu to vendo as horas passar G E aqui dentro tudo faz lembrar Dm Tem seu cheiro grudado no meu F G cobertor Dm F E já eh madrugada, já bate o desespero Dm F Não vou ficar em casa, pra ver se G eu te esqueço C Vai que a gente se encontra de novo G Numa balada no meio do povo Dm F G Eu meio travado, coração apertado C Se der um sorriso não vou resistir G Sua boca dizendo te quero pra mim Dm F G Que me esperou, que tava com saudade amor C Vai que a gente se encontra de novo G Numa balada no meio do povo Dm F G Eu meio travado, coração apertado C Se der um sorriso não vou resistir G Sua boca dizendo te quero pra mim Dm F G Que me esperou, que tava com A saudade amor D Vai que a gente se encontra de novo A Numa balada no meio do povo Em G A Eu meio travado, coração apertado D Se der um sorriso não vou resistir A Sua boca dizendo te quero pra mim Em G A Que me esperou, que tava com D G A D saudade amor
Composición: PAULA MATTOSColaboración y revisión: Pedro VianaLais AlvesLucas QuirinoVinicius Cesary más 7

Utilizamos cookies e outras tecnologias semelhantes para melhorar e personalizar sua experiência de uso. Ao navegar nos produtos, você concorda com as condições descritas em nossa Política de Privacidade.