Aint Too Proud To Beg

The Temptations

Instrumento: Baixo

Bass comes in at 0:16 

 G|-------|
 D|-7-5-2-|
 A|-------|
 E|-------|

 G|-----------2---------------|
 D|-----2-5-3-----------------|
 A|-2h3---------3-3-3-0-0-2-2-|
 E|---------------------------|

 G|---------2---------------|
 D|---2-5-3-----------------| x3
 A|-3---------3-3-3-0-0-2-2-|
 E|-------------------------|

 G|-------------------------------------|
 D|-----------------------------55-55-5-|
 A|-3-rest-3-rest-3-rest-3-rest---------|
 E|-------------------------------------|

 G|---------2---------------|
 D|---2-5-3-----------------| x4
 A|-3---------3-3-3-0-0-2-2-|
 E|-------------------------|

 G|-------------------------------------|
 D|-----------------------------55-55-5-|
 A|-3-rest-3-rest-3-rest-3-rest---------|
 E|-------------------------------------|

 G|---------2---------------|
 D|---2-5-3-----------------| x3
 A|-3---------3-3-3-0-0-2-2-|
 E|-------------------------|

 G|---------2---------|
 D|---2-5-3---55-55-5-| 
 A|-3-----------------|
 E|-------------------|

 G|-----------2---------------|
 D|-----2-5-3-----------------|
 A|-2h3---------3-3-3-0-0-2-2-|
 E|---------------------------|

 G|---------2---------------|
 D|---2-5-3-----------------| x2
 A|-3---------3-3-3-0-0-2-2-|
 E|-------------------------|

 G|---------2---------|
 D|---2-5-3---55-55-5-| 
 A|-3-----------------|
 E|-------------------|

 G|-------------------------------------|
 D|-----------------------------55-55-5-|
 A|-3-rest-3-rest-3-rest-3-rest---------|
 E|-------------------------------------|

 G|---------2---------------|
 D|---2-5-3-----------------| FADE OUT
 A|-3---------3-3-3-0-0-2-2-|
 E|-------------------------|

============================================================================
| h  hammer-on
============================================================================
Composición: Eddie HollandColaboración y revisión: