Should've Said No

Taylor Swift

A
123
X02220
C
123
X32010
D
123
XX0232
D/F#
1234
2X0232
Em
12
022000
G
123
320003
Tono: G
(intro)


(riff 1)

E|------------------|-------------
B|----2--4--2--0----|--2--4--2--0-
G|----------------2-|-------------
D|------------------|-------------
A|------------------|-------------
E|------------------|-------------

E|-----|----------------------------
B|-----|--2--4--2--0--2--2--2--2--0-
G|2----|----------------------------
D|-----|----------------------------
A|-----|----------------------------
E|-----|----------------------------

E|--|    
B|-4|    
G|--|    
D|--|    
A|--|    
E|--|    



(riff 2)

E|------------------|-------------
B|----2--4--2--0----|--2--4--2--0-
G|---------------2--|-------------
D|------------------|-------------
A|------------------|-------------
E|------------------|-------------

E|-----|------------------|   
B|-----|----0--2--0-------|   
G|-2---|--2---------4--2--|   
D|-----|------------------|   
A|-----|------------------|   
E|-----|------------------|   


(intro 2x) Em C D G D/F# Em C D

G                         D/F#   
It's strange to think the songs 
          Em
we used to sing
                C       
The smiles, the flowers, 
      G           D/F# Em C
everything... is gone
G                 D
Yesterday I found out about you
Em            C               G 
Even now just looking at you... 
      D/F# Em C
feels wrong
Em                 C             
You say that you'd take it all 
          G
back, given one chance
                  D               
It was a moment of weakness and 
C       D
you said yes

                   Em              
You should've said no, you 
       C
should've gone home
                      D            
You should've thought twice before 
               G
you let it all go
    D/F#                Em        
You should've know that word, bout
                   C
 what you did with her
                  D
Would get back to me...
                     Em            
And I should've been there, in the 
             C
back of your mind
               D             G
I shouldn't be asking myself why
D/F# Em You shouldn't be begging for C A forgiveness at my feet... C You should've said no, baby and you D might still have me ( Em C D G Em C D ) G D/F# You can see that I've been crying Em C And baby you know all the right G D/F# Em C things... to say G D/F# Em C But do you honestly expect me to believe G D/F# Em C We could ever be the same Em C You say that the past is the G past, you need one chance D It was a moment of weakness and C D you said yes Em You should've said no, you C should've gone home D You should've thought twice before G you let it all go D/F# Em You should've know that word, bout C what you did with her D Would get back to me... Em And I should've been there, in the C back of your mind D G I shouldn't be asking myself why D/F# Em You shouldn't be begging for C A forgiveness at my feet... C You should've said no, baby and you D might still have me ( Em C G D ) Em C I can't resist… before you go, A tell me this C D Was it worth it… C Was she worth this… Em C D G D/F# Em C D Nooooo no... no, no, no, no... Em You should've said no, you C should've gone home D You should've thought twice before G you let it all go Em You should've know that word, bout C what you did with her D Would get back to me... Em And I should've been there, in the C back of your mind D/F# G I shouldn't be asking myself why D/F# Em You shouldn't be begging for C A forgiveness at my feet... C You should've said no, baby and you D Em might still have me
Composición: Taylor SwiftColaboración y revisión: Pedro MattaRoger TorbesAndré Ferreira

Utilizamos cookies e outras tecnologias semelhantes para melhorar e personalizar sua experiência de uso. Ao navegar nos produtos, você concorda com as condições descritas em nossa Política de Privacidade.