A
1
X0XX2X
Bb
13
X1XX3X
C
13
X3XX5X
Dm
12
X5XX6X
Eb
13
X6XX8X
F
13
X8XX10X
Tono: G
Afinação: C  G  C  F  A  D

Introdução: Dm  F  C  Eb  Bb  C
            Dm  F  C  Eb  Bb  C

#1t1#   Dm            F       C
#1t2#E|------------------------------------------|
B|----6------6------10------5---------------|
G|------------------------------------------|
D|------------------------------------------|
A|-5----5--5---5-8-----0-3----3-------------|
E|------------------------------------------|#/1t2##/1t1#
#2t1#   Eb            Bb     C
#2t2#E|------------------------------------------|
B|----8------8------3------5----------------|
G|------------------------------------------|
D|------------------------------------------|
A|-6----6--6---0-1----1-3----3--------------|
E|------------------------------------------|#/2t2##/2t1#


Primeira Parte:

Dm            F
   I have a problem
        C         Eb
That I cannot explain
           Bb
I have no reason
         C                   Dm
Why it should have been so plain
          F
Have no questions
       C           Eb
But I sure have excuse
            Bb
I like the reason
        C              Dm
Why I should be so confused


Primeiro Refrão:

    A
I know
 C              Bb    C
How I feel when I'm around you
Dm        A
I don't know
 C              Bb    C        Dm  F  C  Eb  Bb
How I feel when I'm around you
  C        Dm  F  C  Eb  Bb  C
Around you

#3t1#   Dm            A
#3t2#E|------------------------------------------|
B|----6------6------2------2----------------|
G|------------------------------------------|
D|------------------------------------------|
A|-5----5--5---5-0----0--0---0--------------|
E|------------------------------------------|#/3t2##/3t1#
#4t1#   C             Bb     C
#4t2#E|------------------------------------------|
B|----5------5------3------5----------------|
G|------------------------------------------|
D|------------------------------------------|
A|-3----3--3---0-1----1-3----3--------------|
E|------------------------------------------|#/4t2##/4t1#


Segunda Parte:

Dm         F
   Left a message
       C              Eb
But it ain't a bit of use
             Bb
I have some pictures
     C                 Dm
The wild might be the deuce
           F            C          Eb
Today you saw, you saw me, you explained
              Bb
Playing the show
     C                 Dm
And running down the plane


Segundo Refrão:

    A
I know
 C              Bb    C
How I feel when I'm around you
Dm        A
I don't know
 C              Bb    C
How I feel when I'm around you
Dm     A
I, I know,
 C              Bb    C
How I feel when I'm around you
Dm        A
I don't know
 C              Bb    C
How I feel when I'm around you


Solo: Dm  F  C  Eb  Bb  C

(Violão 1)

#5t1##5t2#E|-10~---10-12-13~---12-13-15~------------------------|
B|----------------------------------------------------|
G|----------------------------------------------------|
D|----------------------------------------------------|
A|----------------------------------------------------|
E|----------------------------------------------------|#/5t2##/5t1#

#6t1##6t2#E|-12-13-15-13-12\10-12-13-12-10-10~------------------|
B|-------------------------------------10-10~---------|
G|----------------------------------------------------|
D|----------------------------------------------------|
A|----------------------------------------------------|
E|----------------------------------------------------|#/6t2##/6t1#

#7t1##7t2#E|----------------------------------------------------|
B|-10-11-13-11-10\8-10-11-10-8-8~---------------------|
G|----------------------------------------------------|
D|---------------------------------10-10~-------------|
A|----------------------------------------------------|
E|----------------------------------------------------|#/7t2##/7t1#

#8t1##8t2#E|----------------------------------------------------|
B|-/11--10--10--8--8--6--6----------------------------|
G|-/12--10--10--9--9--9--9----------------------------|
D|----------------------------------------------------|
A|----------------------------------------------------|
E|----------------------------------------------------|#/8t2##/8t1#

(Violão 2)

#9t1##9t2#E|-13~---10-12-15~---15-17-18~------------------------|
B|----------------------------------------------------|
G|----------------------------------------------------|
D|----------------------------------------------------|
A|----------------------------------------------------|
E|----------------------------------------------------|#/9t2##/9t1#

#10t1##10t2#E|-17-18-20-18-17-15-17-18-17-15-15~---13-13~---------|
B|----------------------------------------------------|
G|----------------------------------------------------|
D|----------------------------------------------------|
A|----------------------------------------------------|
E|----------------------------------------------------|#/10t2##/10t1#

#11t1##11t2#E|-12-13-15-13-12-10-12-13-12-10-10~------------------|
B|-------------------------------------11-11~---------|
G|----------------------------------------------------|
D|----------------------------------------------------|
A|----------------------------------------------------|
E|----------------------------------------------------|#/11t2##/11t1#

#12t1##12t2#E|-13h15p13--12h13p12--10h12p10--10-------------------|
B|-13--------12--------10--------10-------------------|
G|----------------------------------------------------|
D|----------------------------------------------------|
A|----------------------------------------------------|
E|----------------------------------------------------|#/12t2##/12t1#


Terceiro Refrão:

Dm     A
I, I know
 C              Bb    C
How I feel when I'm around you
Dm        A
I don't know
 C              Bb    C
How I feel when I'm around you
Dm     A
I, I know
 C              Bb    C
How I feel when I'm around you
Dm        A
I don't know
 C              Bb    C        Dm  F  C  Eb  Bb
How I feel when I'm around you
  C        Dm  F  C  Eb  Bb
Around you
  C        Dm  F  C  Eb  Bb
Around you
  C        Dm  F  C  Eb  Bb
Around you
  C        Dm
Around you
Composición: Daron MalakianColaboración y revisión: Vinícius DiasBruna OliveiraDiego leonardoJoão Vitory más 22
videoclase Roulette (aula de violão)