Eye of the Tiger

Survivor

Ab5
134
466XXX
Bb/F
XXP333X
Eb5/F
3
XXP334X
F5
134
133XXX
Tono: G
Introdução:

(Guitarra Base - Riff 1)
   P.M . . . . . . . . . . . . . . . . . . . . . .
#1t1##1t2#E|---------------------------------------------------
B|---------------------------------------------------
G|---------------------------------------------------
D|---------------------------------------------------
A|-3-3-3-3-3-3-3-3-3-3-3-3-3-3-3-3-3-3-3-3-3-3-3-3---
E|---------------------------------------------------#/1t2##/1t1#

#2t1#(Guitarra Solo - Riff Principal)
#2t2#E|---------------------------------------------------
B|---------------------------------------------------
G|-5----5--3--5----5--3--5----5----------------------  (2x)
D|-5----5--3--5----5--3--5----5--5--6----------------
A|-3----3--1--3----3--1--3----3--6--6----------------
E|-------------------------------3--4----------------#/2t2##/2t1#

#3t1#(Guitarra Solo - Variação do Riff Principal)
#3t2#E|---------------------------------------------------
B|-----x-x-4--3--4~---4--3--4~---4-------------------
G|-5---x-x-3--3--3----3--3--3----3-------------------  (2x)
D|-5---x-x-3--3--3----3--3--3----3--5--6-------------
A|-3--------------------------------5--6-------------
E|-------------------------------------4-------------#/3t2##/3t1#

#4t1##4t2#E|---------------------------------------------------
B|---------------------------------------------------
G|-----5\--------------------------------------------
D|-x-x-5\--------------------------------------------
A|-x-x-3\--------------------------------------------
E|-x-x-----------------------------------------------#/4t2##/4t1#

Primeira Parte:

(Riff 1)
Risin' up, back on the street
Did my time, took my chances
Went the distance, now I'm back on my feet
Just a man and his will to survive

So many times, it happens too fast
You change your passion for glory
Don't lose your grip on the dreams of the past
You must fight just to keep them alive

Primeiro Refrão:
         F5
It's the    eye of the tiger
            Eb5/F            Bb/F
It's the thrill of the fight
       F5                          Eb5/F  Bb/F
Risin' up to the challenge of our ri_____val
         F5                              Eb5/F           Bb/F
And the last known survivor stalks his prey in the night
          (Riff do Refrão)
And he's watchin' us all in the eye of the tiger

Segunda Parte:

#5t1#(Guitarra Solo 1)
#5t2#E|---------------------------------------------------
B|-/8~--8\6~--6h8\4~~--------------------------------
G|---------------------------------------------------
D|---------------------------------------------------
A|---------------------------------------------------
E|---------------------------------------------------#/5t2##/5t1#

#6t1#(Guitarra Solo 2)
#6t2#E|---------------------------------------------------
B|---------------------------------------------------
G|-/8~--8\7~--7h8\5~~--------------------------------
D|---------------------------------------------------
A|---------------------------------------------------
E|---------------------------------------------------#/6t2##/6t1#

(Riff 1)
Face to face, out in the heat
Hangin' tough, stayin' hungry
They stack the odds 'til we take to the street
For we kill with the skill to survive

Segungo Refrão:

         F5
It's the    eye of the tiger
            Eb5/F            Bb/F
It's the thrill of the fight
       F5                          Eb5/F  Bb/F
Risin' up to the challenge of our ri_____val
         F5                              Eb5/F           Bb/F
And the last known survivor stalks his prey in the night
          (Riff do Refrão)
And he's watchin' us all in the eye of the tiger

(Riff 1)

Terceira Parte:

Risin' up, straight to the top
Have the guts, got the glory

(Riff 1)
Went the distance, now I'm not gonna stop
Just a man and his will to survive

Terceiro Refrão:

         F5
It's the    eye of the tiger
            Eb5/F            Bb/F
It's the thrill of the fight
       F5                          Eb5/F  Bb/F
Risin' up to the challenge of our ri_____val
         F5                              Eb5/F           Bb/F
And the last known survivor stalks his prey in the night
          (Riff do Refrão)
And he's watchin' us all in the eye of the tiger

( Ab5 )

(Riff Principal 2x)

(Variação do Riff Principal)

The eye of the tiger (4x)

#7t1#Riff do Refrão:
#7t2#E|---------------------------------------------------
B|---------------------------------------------------
G|---------------------------------------------------
D|-/3-2-3-3/5-3-5-5/6~-------------------------------
A|---------------------------------------------------
E|---------------------------------------------------#/7t2##/7t1#
Composición: Frankie Sullivan / Jim PeterikColaboración y revisión: Erick AlmeidaMárcio MonteiroMatheus Marcel Fidélisy más 5
videoclase Eye Of The Tiger (aula de guitarra)