Not Done Yet

SOJA

A
123
X02220
Bm
234
X24432
C#7
1234
X4342X
D
123
XX0232
G
123
320003
Tono: G
Intro:  Bm   G   D   A   Bm   G

   D   A



E|---------5-3---5-5-3-2---3-3-2-
B|------3----------------3-------
G|-4-4---------------------------
D|-------------------------------
A|-------------------------------
E|-------------------------------

E|--------------------| 
B|3-2---5~-5~--3------| 
G|----------------4---| 
D|--------------------| 
A|--------------------| 
E|--------------------| 



E|---------5-3---5-5-3-2---3-3-2-
B|------3----------------3-------
G|-4-4---------------------------
D|-------------------------------
A|-------------------------------
E|-------------------------------

E|------5-7-----------| 
B|3-2-----------------| 
G|--------------------| 
D|--------------------| 
A|--------------------| 
E|--------------------| 


Bm                      G
It's hard for me when I think about 
the things that never been
D                     A
They keep coming back again like 
they got something to prove
Bm                      G
I love my memories, but they are 
awake, controlling me at times
D                       A
And I'm so lost without you, yeah, 
yeah


G                            Bm
And I can't get far from it, and 
from what went wrong
A                      Bm
And I know it's stupid cause its 
been so long
G                       Bm
The farther I get away, the more 
that I hold on
A                             C#7
It's just this feeling I get, 
                       Bm
it's like I'm not done yet

G D A I'm not done yet Bm G I am not done yet D A I'm not done yet Bm G I think about those times when we were young,and everything was so D A Brand new and our words were so true you Bm G Looked into my eyes that one last time if I had known back then D A Would I be living with today? You might have stayed, but G Bm And I can't get far from it, and from what went wrong A Bm And I know it's stupid cause its been so long G Bm The farther I get away, the more that I hold on A C#7 It's like I try to forget, Bm somehow I'm not done yet G D A I'm not done yet Bm G I am not done yet D A I'm not done yet Bm G It's hard for me when I think about the things that never been D A They keep coming back again like they got something to prove A Bm G It's like I'm not done yet D A I'm not done yet Bm G I am not done yet D A I'm not done yet
Composición: Colaboración y revisión: Mateus MattosLucas NiicacioDavi SilvaTaynan Medeiros

Utilizamos cookies e outras tecnologias semelhantes para melhorar e personalizar sua experiência de uso. Ao navegar nos produtos, você concorda com as condições descritas em nossa Política de Privacidade.