Señorita (feat. Camila Cabello)

Shawn Mendes

Am7
12
X02010
C7M/G
1234
3X241X
Em7
123
022030
F
234
133211
F7M
1234
1X221X
G
123
320003
Tono: G
[Intro] Am7  C7M/G  F7M  Em7  G


E|--8------8-7-------8-7----7-8---
B|----10-------8---8-----10-----8-
G|-------9------------------------
D|--------------------------------
A|--------------------------------
E|--------------------------------

E|----8-7-------------| 
B|--------8-----------| 
G|9-------------------| 
D|--------------------| 
A|--------------------| 
E|--------------------| 



E|----8-7---------8-8-8--------8-
B|--8-----10-8--6----------6-6---
G|-------------------------------
D|-------------------------------
A|-------------------------------
E|-------------------------------

E|8-8------7---8-7-8-7-| 
B|--------------------8| 
G|---------------------| 
D|---------------------| 
A|---------------------| 
E|---------------------| 



E|-7---8-7-8-7-----7--------------
B|-------------8-7----------------
G|--------------------------------
D|--------------------------------
A|--------------------------------
E|--------------------------------


[Refrão]

                    Am7
I love it when you call me señorita
                   C7M/G
I wish I could pretend I didn't need
 ya
                    F7M
But every touch is ooh-la-la-la

It's true, la-la-la
Em7
Oh, I should be runnin'
G
Oh, you keep me coming for ya

[Primeira Parte]

 Am7
Land in Miami
                             C7M/G
The air was hot from summer rains

Sweat drippin' off me
                        F7M
Before I even knew her name, 
la-la-la
              Em7            G
It felt like ooh-la-la-la, yeah no
 Am7
Sapphire and moonlight, we danced 
for hours in the sand
C7M/G                             
 Tequila sunrise, her body fit 
          F7M
right in my hands, ooh-la-la-la
              Em7            G
It felt like ooh-la-la-la, yeah

[Refrão]

                    Am7
I love it when you call me señorita
                   C7M/G
I wish I could pretend I didn't need
 ya
F7M But every touch is ooh-la-la-la It's true, la-la-la Em7 Oh, I should be runnin' G Oh, you keep me coming for ya Am7 You know I love it when you call me señorita C7M/G I wish it wasn't so damn hard to leave ya F7M But every touch is ooh-la-la-la It's true, la-la-la Em7 Oh, I should be runnin' G Oh, you keep me coming for ya [Segunda Parte] Am7 Locked in the hotel, there's C7M/G Just somethings that never change You say we're just friends But friends don't know the way you F7M taste Em7 God knows it's been a long time coming G Don't ya let me fall, ooh Am7 Hooked on your lips, undress me C7M/G Hooked on your tongue G Ooh, love your kiss is deadly, don't stop [Refrão] Am7 I love it when you call me señorita C7M/G I wish I could pretend I didn't need ya F But every touch is ooh-la-la-la It's true, la-la-la Em7 Oh, I should be runnin' G Oh, you keep me coming for ya Am7 You know I love it when you call me señorita C7M/G I wish it wasn't so damn hard to leave ya F7M But every touch is ooh-la-la-la It's true, la-la-la Em7 Oh, I should be runnin' G Oh, you keep me coming for ya [Final] Am7 All along I've been coming for C7M/G ya (For you) And I hope it means something to F7M you Call my name, I'll be coming for Em7 ya G Calling for ya Am7 For ya C7M/G For ya (Oh, she loves it when I come) F7M For ya Em7 Oh, I should be runnin' G Oh, you keep me coming for ya
Composición: Ali Tamposi / Andrew Wotmnan / Benjamin Levin / Camila Cabello / Charlotte Emma / Jack Patterson / Magnus August Hoiberg / Shawn MendesColaboración y revisión: Getúlio Vasconcelos
videoclase SEÑORITA (feat. Camila Cabello) (aula de violão completa)

Utilizamos cookies e outras tecnologias semelhantes para melhorar e personalizar sua experiência de uso. Ao navegar nos produtos, você concorda com as condições descritas em nossa Política de Privacidade.