Tono: G
drop D tuning
Intro
~~~~~
 Play two times

E---------------------------------
B---------------------------------
G---------------------------------
D--x--x--0----0--0-0--0-0--0-0-x--
A--x--x--0----0--0-0--0-0--0-0-x--
E---------------------------------

E|------------------------------ 
B|------------------------------ 
G|------------------------------ 
D|x--7----7--7-7--7-7--7-7-x--x- 
A|x--7----7--7-7--7-7--7-7-x--x- 
E|------------------------------ 


                                           Play first time   2nd

E---------------------------------
B---------------------------------
G--5----5--5-5--5-5--5-5-x--x-----
D--5----5--5-5--5-5--5-5-x--x--5--
A------------------------------5--
E---------------------------------

E|-------|------------------|---| 
B|-------|------------------|---| 
G|-------|------------------|---| 
D|--5--5-|-5--5-5--5-5-x--x-|-4-| 
A|--5--5-|-5--5-5--5-5-x--x-|-4-| 
E|-------|------------------|---| 


Verse 1
~~~~~~~
 Play 4 times                       
  Play the 2nd time

E--------------------------------
B--------------------------------
G--------------------------------
D--9-10--9-10--9-10--9-10--9--3--
A--9-10--9-10--9-10--9-10--9--3--
E--7--8--7--8--7--8--7--8--7--1--

E|----|--- After 8 beats (one 
B|----|--- strum up on the    
G|----|--- 1st and 4 and down 
D|2-2-|-9- on the 3rd beat    
A|2-2-|-9-                    
E|0-0-|-7-                    

measure) 
          
          
          
          
          

 O                                  
   -
Repeat all the 2nd time playing, 
then go back to Intro

Verse 2 ~~~~~~~ E----------------------------- B----------------------------- G----------------------------- D--9-9-9-9-9--9-9--9-9--9-9-9- A--9-9-9-9-9--9-9--9-9--9-9-9- E--7-7-7-7-7--7-7--7-7--7-7-7- P - - - - - - - - - - - - O - - - - - - - - - - - - Verse 3 ~~~~~~~ Play 4 times and go back to Verse 1 E---------------------------- B---------------------------- G---------------------------- D--7-5-7-8--9-9--9-9-9-9-9-9- A--7-5-7-8--9-9--9-9-9-9-9-9- E-----------7-7--7-7-7-7-7-7- P - - - - - - - - O - - - - - - - - Verse 4 ~~~~~~~ Play 4 times and go to Bridge E-------------------------- B-------------------------- G-------------------------- D--x-x-7-9--x-x-7-x-9-x-11- A--x-x-7-9--x-x-7-x-9-x-11- E--x-x-5-7--x-x-5-x-7-x-9-- Bridge ~~~~~~ Play 4 times and hold at the end E----------------------- then B----------------------- Verse G---------------------6- Then D---------------------6- Then A--x-x-x-x-x--x-x-x-x-4- E----------------------- E|go B| 2 G|Ver D|Ver A| E| E|back to B|& 3 once G|se 1 once D|se 5 A| E| Verse 5 ~~~~~~~ After this end on Verse 2 & 3 E--------------------------------- B--------------------------------- G--------------------5------------ D--0--------7--------5--------5--- A--0--------7-----------------5--- E---------------------------------
Composición: Colaboración y revisión: