Miénteme

Camilo Sesto

A
123
X02220
B7
1234
X21202
Bm
234
X24432
D
123
XX0232
Em7
123
022030
F#7
34
242322
G
123
320003
Tono: G
 Punteo inicial:


e|--------------------------------
b|--------5-3-----5-3-----3-2-----
g|-4-4-6-7---6-4-3---6-4-3---4-2--
D|--4---------------------------4-
A|--------------------------------
E|--------------------------------

e|----------------------------------
b|-------5-3-----5-3----------------
g|4-4-6-7---6-4-3---6-4-3-4-6-4-6-3-
D|-4---------------------4----------
A|----------------------------------
E|----------------------------------

e|  
b|  
g|  
D|  
A|  
E|  


       Bm                       
Has llegado tarde a casa,y te he 
 A            D            Em7   
visto muy feliz,me has mentido y 
         Bm
me he callado
                   G           F#7
porque se,que es mejor dejarlo asi.
       Bm                       
Es mejor no decir nada,si no hay 
 A          D         F#7   
nada que decir,la verdad no es 
        Bm
necesaria
G F#7 si se trata de vivir. CORO: G Bm Mienteme e e e e.Porque solo F#7 asi,me haras saber Bm B7 que aun nos podemos entender. G Bm Mienteme ee ee e.Tus ojos F#7 Bm dicen la verdad,mienteme. (Punteo inicial) Hace tiempo que ocultamos,cada uno su otro yo.Hace tiempo que fingimos por no hablar,cuando hacemos el amor. La mentira nos ha unido,la aceptamos los dos.cualquier cosa es importante antes que decirse adios. CORO-Punteo inicial-CORO
Composición: Honorio Herrero / Julio Seijas / Luis Gómez EscolarColaboración y revisión: Rafael Ramos

Utilizamos cookies e outras tecnologias semelhantes para melhorar e personalizar sua experiência de uso. Ao navegar nos produtos, você concorda com as condições descritas em nossa Política de Privacidade.