Atlantis

Seafret

C#m
234
X46654
E
123
022100
F#
234
244322
G#m
34
466444
Tono: G
[Intro] E  F# G#m
        E  F# G#m  F#


      E                          
E|--------------------------------
B|---------0--------0--------0----
G|--------------------------------
D|-----6--------6--------6--------
A|---7---7----7---7----7---7----9-
E|--------------------------------
  F#       G#m
E|----------------------------------
B|----0----------0----------0-------
G|----------------------------------
D|8---------9----------9----------9-
A|--9----11---11----11---11----11---
E|----------------------------------

E|---------------| 
B|0---------0----| 
G|---------------| 
D|--------9------| 
A|11---11---11---| 
E|---------------| 



      E                          
E|--------------------------------
B|---------0--------0--------0----
G|--------------------------------
D|-----6--------6--------6--------
A|---7---7----7---7----7---7----9-
E|--------------------------------
  F#       G#m               F#
E|---------------------------------
B|----0----------0-----------------
G|---------------------------------
D|8---------9------------------8---
A|--9----11---11------11---9-------
E|---------------------------------

E|---------| 
B|0--------| 
G|---------| 
D|---8-----| 
A|---------| 
E|---------| 


E                               
The birds have left their trees the 
G#m
light pours onto me...
E                                 
I can feel you lying there all on 
     G#m    F#
your own...
E
We got here in the hard way
          G#m
All those words that we exchanged
E                            G#m 
Is it any wonder things get dark?
   F#


C#m
Cause in my heart and in my head
E
I'll never take back the things I 
said
G#m            F#
So high above, I feel it coming down
         C#m
She said in my heart and in my head
E
Tell me why this has to end
G#m F# Oh no, oh no E G#m F# I can't save us, my Atlantis, we fall F# We built this town on shaky ground E G#m F# I can't save us, my Atlantis, oh no F# E We built it up to put it down E G#m Now all the birds have fled, the hurt just leaves me scared E G#m F# Losing everything I've ever known... E G#m It's all become too much, maybe I'm not built for love E If I knew that I could reach you, G#m F# I would go... C#m It's in my heart and in my head E You can't take back the things you said G#m F# So high above, I feel it coming down C#m She said in my heart and in my head E Tell me why this has to end G#m F# Oh no, oh no E G#m F# I can't save us, my Atlantis, we fall F# We built this town on shaky ground E G#m F# I can't save us, my Atlantis, oh no F# E We built it up to put it down G#m And we built it up, and we built E it up G#m E And built it up to pull it down G#m And we built it up, and we built E it up G#m E And built it up to pull it down
Composición: Colaboración y revisión: Gustavo GsGiordano RodriguesRauro KarpinskiRobert Gebhardt

Utilizamos cookies e outras tecnologias semelhantes para melhorar e personalizar sua experiência de uso. Ao navegar nos produtos, você concorda com as condições descritas em nossa Política de Privacidade.