O Velho e o Mar

Rubel

B/Bb
1234
6X444X
B7M
234
X24342
B7M/F#
1234
XX4446
C#7/G#
1234
4X342X
C#m
234
X46654
C#m/G#
1234
XX6654
C#m7
34
X46454
C#m7/6
1234
X4X456
D#7
1234
X6564X
E7M
1234
XX2444
G#m7/9
1234
XX6476
Tono: G
INTRO: B7M  B/Bb  C#m/G#  B7M/F#
      (E7M  C#m  D#7  E7M )


Inicio:

E|9-11-9--------------------------
B|-------9-12-11-11-12-11-9---7-9-
G|--------------------------------
D|--------------------------------
A|--------------------------------
E|--------------------------------

E|----------------------------------
B|----9-7---------------------------
G|9-8-----8-9-8-6--1-----1----4-2---
D|-------------------2-----2------4-
A|---------------------4------------
E|----------------------------------

E|--------4-------------------------
B|--------4-------------------------
G|--4-1---4-------------------------
D|2-------1-------------------------
A|----------------------------------
E|----------------------------------




C#7/G#
Lança o barco contra o mar
E7M
Venha o vento que houver
C#m7
E se
C#m7/6
Virar
G#m7/9
Nada

C#7/G#
Pega a mala que couber
E7M
Roda a estrada sem saber
C#m7 E se C#m7/6 Perder G#m7/9 Calma C#7/G# Beija a boca da mulher E7M Tira a roupa sem pedir C#m7 E se C#m7/6 Sorrir G#m7/9 Fica C#7/G# Bebe o copo que encher E7M Diz pro amigo que é irmão C#m7 O que C#m7/6 Nem tem G#m7/9 Palavra C#7/G# Lança o barco contra o mar E7M Venha o vento que houver C#m7 E se C#m7/6 Puder G#m7/9 Voa FINAL: B7M B/Bb C#m/G# B7M/F# (E7M C#m D#7 E7M )
Composición: RubelColaboración y revisión: Diego OliveiraRubel Rodrigues

Utilizamos cookies e outras tecnologias semelhantes para melhorar e personalizar sua experiência de uso. Ao navegar nos produtos, você concorda com as condições descritas em nossa Política de Privacidade.