Listen To Your Heart

Roxette

A
123
X02220
B
234
X24442
Bm
234
X24432
C#
234
X46664
C#m
234
X46654
D
123
XX0232
D#m
1234
XX1342
E
123
022100
Em
12
022000
F#
234
244322
G
123
320003
Tono: G
[Intro] Bm  G  A
        Bm  G  A
        Bm  G  A
        Bm  G  A  Bm

[Primeira Parte]

Bm                 G          
 I know there’s something in the 
    A             Bm
wake of your smile
         G               A        
I get a notion from the look in 
   Bm
your eyes
             G                A   
You've built a love but that love 
        Bm
falls apart
                            G      
Your little piece of heaven,  turns
      Em
 too dark

[Refrão]

                Bm   G
Listen to your heart
           D           A
When he's calling for you
                Bm   G
Listen to your heart
                D             A
There's nothing else you can do
          D                A
I don't know where you're going
    G              D
And I don't know why
                    Bm   G
But listen to your heart
       A                   Bm
Before   you tell him goodbye

[Solo] Bm  G  A  Bm
       Bm  G  A  Bm
       D  A  G  D
       Bm  G  A


E|------------------------------
B|-/12~~---12/------------------
G|------------------------------
D|------------------------------
A|---------10/------5b6r5-------
E|------------------------------

E|----------------------| 
B|----------------------| 
G|9b11-7h9--------------| 
D|---------9~-----------| 
A|----------------------| 
E|----------------------| 



E|------------------------------
B|---------------------10-7~----
G|-----6h7p6---------7----------
D|-7-9-------7-----7------------
A|-------------9-7--------------
E|------------------------------

E|12b14-10-12b14r12-----| 
B|----------------------| 
G|----------------------| 
D|----------------------| 
A|----------------------| 
E|----------------------| 



E|-12p11p10--------------------21-
B|----------12-----7--------------
G|---------------------7h9p7~-----
D|--------------/9---9------------
A|--------------------------------
E|--------------------------------

E|21b22r21--19-19-----| 
B|--------------------| 
G|--------------------| 
D|--------------------| 
A|--------------------| 
E|--------------------| 



E|-17/15-14--12h14-10-10h12-10-9-
B|-------------------------------
G|-------------------------------
D|-------------------------------
A|-------------------------------
E|-------------------------------

E|7--------------------| 
B|---------------------| 
G|---------------------| 
D|---------------------| 
A|---------------------| 
E|---------------------| 


Bm     G                        
  Sometimes you wonder if this 
A              Bm
fight is worthwhile
              G               A   
The precious moments are all lost 
        Bm
in the tide
              G         A         
They're swept away and nothing is 
         Bm
what it seems
G The feeling of belonging to your Em dreams [Refrão] Bm G Listen to your heart D A When he's calling for you Bm G Listen to your heart D A There's nothing else you can do D A I don't know where you're going G D And I don't know why Bm G But listen to your heart A Bm Before you tell him goodbye [Solo] Bm G A Bm Bm G A Bm D A G D Bm G A [Ponte] E And there are voices That want to be heard C#m So much to mention But you can't find the words B The scent of magic A The beauty that's been B When love was wilder C# Than the wind [Refrão] D#m B Listen to your heart F# C# When he's calling for you D#m B Listen to your heart F# C# There's nothing else you can do F# C# I don't know where you're going B F# And I don't know why D#m B But listen to your heart C# Before D#m B Listen to your heart F# C# When he's calling for you D#m B Listen to your heart F# C# There's nothing else you can do F# C# I don't know where you're going B F# And I don't know why D#m B But listen to your heart C# Before D#m You tell him goodbye ( D#m B F# C# ) ( D#m B F# C# ) ( D#m B F# C# ) ( D#m B F# C# ) [Refrão] B C# D#m Listen to your heart B C# D#m Listen to your heart B C# D#m Listen to your heart B C# D#m Listen to your heart B C# D#m Listen to your heart B C# D#m Listen to your heart
Composición: Mats Persson / Per GessleColaboración y revisión: Getúlio VasconcelosDonato Carvalhojulian conceiçãocarlos santosy más 2

Utilizamos cookies e outras tecnologias semelhantes para melhorar e personalizar sua experiência de uso. Ao navegar nos produtos, você concorda com as condições descritas em nossa Política de Privacidade.