Show Me Love

Robin Schulz

Tono: G
Intro: 1x

#1t1##1t2#E|---------------------------------------------------------------------------|
B|---------------------------------------------------------------------------|
G|---7---7---7---7---7---7---2---2---4---4---4---4---4---4---2---2-----------|
D|---------------------------------------------------------------------------|
A|---------------------------------------------------------------------------|
E|-7---7---7---7---7---7---2---2---3---3---3---3---3---3---2---2-------------|#/1t2##/1t1#

#2t1##2t2#E|---------------------------------------------------------------------------|
B|---------------------------------------------------------------------------|
G|---6---6---6---6---6---6---2---2---4---4---4---4---4---4---2---2-----------|
D|---------------------------------------------------------------------------|
A|---------------------------------------------------------------------------|
E|-5---5---5---5---5---5---2---2---3---3---3---3---3---3---2---2-------------|#/2t2##/2t1#


Verse: 2x

#3t1##3t2#E|---------------------------------------------------------------------------|
B|---------------------------------------------------------------------------|
G|---4---4---4---4---4---4---4---4---7---7---7---7---7---7---7---7-----------|
D|---------------------------------------------------------------------------|
A|---------------------------------------------------------------------------|
E|-3---3---3---3---3---3---3---3---7---7---7---7---7---7---7---7-------------|#/3t2##/3t1#

#4t1##4t2#E|---------------------------------------------------------------------------|
B|---------------------------------------------------------------------------|
G|---7---7---7---7---7---7---2---2---4---4---4---4---4---4---2---2-----------|
D|---------------------------------------------------------------------------|
A|-5---5---5---5---5---5-----------------------------------------------------|
E|-------------------------2---2---3---3---3---3---3---3---2---2-------------|#/4t2##/4t1#


Prechorus: 1x

#5t1##5t2#E|-------------------------------------------|
B|-------------------------------------------|
G|---4---4---4---4---4---4---2---2-----------|
D|-------------------------------------------|
A|-------------------------------------------|
E|-3---3---3---3---3---3---2---2-------------|#/5t2##/5t1#


Chorus: 2x

#6t1##6t2#E|---------------------------------------------------------------------------|
B|---------------------------------------------------------------------------|
G|---4---4---4---4---4---4---4---4---7---7---7---7---7---7---7---7-----------|
D|---------------------------------------------------------------------------|
A|---------------------------------------------------------------------------|
E|-3---3---3---3---3---3---3---3---7---7---7---7---7---7---7---7-------------|#/6t2##/6t1#

#7t1##7t2#E|---------------------------------------------------------------------------|
B|---------------------------------------------------------------------------|
G|---6---6---6---6---6---6---6---6---4---4---4---4---4---4---2---2-----------|
D|---------------------------------------------------------------------------|
A|---------------------------------------------------------------------------|
E|-5---5---5---5---5---5---5---5---3---3---3---3---3---3---2---2-------------|#/7t2##/7t1#


Intro 1x

Verse 2x

Chorus 2x

Intro 3x

Chorus 4x

Intro 1x
Composición: Colaboración y revisión: Victor Tavares