Show Me Love

Robin Schulz

Tono: G
Intro: 1x


E|-------------------------------
B|-------------------------------
G|---7---7---7---7---7---7---2---
D|-------------------------------
A|-------------------------------
E|-7---7---7---7---7---7---2---2-

E|--------------------------------------------| 
B|--------------------------------------------| 
G|2---4---4---4---4---4---4---2---2-----------| 
D|--------------------------------------------| 
A|--------------------------------------------| 
E|--3---3---3---3---3---3---2---2-------------| 



E|-------------------------------
B|-------------------------------
G|---6---6---6---6---6---6---2---
D|-------------------------------
A|-------------------------------
E|-5---5---5---5---5---5---2---2-

E|--------------------------------------------| 
B|--------------------------------------------| 
G|2---4---4---4---4---4---4---2---2-----------| 
D|--------------------------------------------| 
A|--------------------------------------------| 
E|--3---3---3---3---3---3---2---2-------------| 



Verse: 2x


E|-------------------------------
B|-------------------------------
G|---4---4---4---4---4---4---4---
D|-------------------------------
A|-------------------------------
E|-3---3---3---3---3---3---3---3-

E|--------------------------------------------| 
B|--------------------------------------------| 
G|4---7---7---7---7---7---7---7---7-----------| 
D|--------------------------------------------| 
A|--------------------------------------------| 
E|--7---7---7---7---7---7---7---7-------------| 



E|-------------------------------
B|-------------------------------
G|---7---7---7---7---7---7---2---
D|-------------------------------
A|-5---5---5---5---5---5---------
E|-------------------------2---2-

E|--------------------------------------------| 
B|--------------------------------------------| 
G|2---4---4---4---4---4---4---2---2-----------| 
D|--------------------------------------------| 
A|--------------------------------------------| 
E|--3---3---3---3---3---3---2---2-------------| 



Prechorus: 1x E|------------------------------- B|------------------------------- G|---4---4---4---4---4---4---2--- D|------------------------------- A|------------------------------- E|-3---3---3---3---3---3---2---2- E|------------| B|------------| G|2-----------| D|------------| A|------------| E|------------| Chorus: 2x E|------------------------------- B|------------------------------- G|---4---4---4---4---4---4---4--- D|------------------------------- A|------------------------------- E|-3---3---3---3---3---3---3---3- E|--------------------------------------------| B|--------------------------------------------| G|4---7---7---7---7---7---7---7---7-----------| D|--------------------------------------------| A|--------------------------------------------| E|--7---7---7---7---7---7---7---7-------------| E|------------------------------- B|------------------------------- G|---6---6---6---6---6---6---6--- D|------------------------------- A|------------------------------- E|-5---5---5---5---5---5---5---5- E|--------------------------------------------| B|--------------------------------------------| G|6---4---4---4---4---4---4---2---2-----------| D|--------------------------------------------| A|--------------------------------------------| E|--3---3---3---3---3---3---2---2-------------| Intro 1x Verse 2x Chorus 2x Intro 3x Chorus 4x Intro 1x
Composición: Colaboración y revisión: Victor Tavares

Utilizamos cookies para personalizar sua experiência. Ao acessar o site, você concorda com a nossa Política de Privacidade.