Show Me Love Simplificada

Robin Schulz

A
123
X02220
Bm
234
X24432
G
123
320003
Tono: G
Intro: 1x


E|-------------------------------
B|-------------------------------
G|---7---7---7---7---7---7---2---
D|-------------------------------
A|-------------------------------
E|-7---7---7---7---7---7---2---2-

E|--------------------------------------------| 
B|--------------------------------------------| 
G|2---4---4---4---4---4---4---2---2-----------| 
D|--------------------------------------------| 
A|--------------------------------------------| 
E|--3---3---3---3---3---3---2---2-------------| 



E|-------------------------------
B|-------------------------------
G|---6---6---6---6---6---6---2---
D|-------------------------------
A|-------------------------------
E|-5---5---5---5---5---5---2---2-

E|--------------------------------------------| 
B|--------------------------------------------| 
G|2---4---4---4---4---4---4---2---2-----------| 
D|--------------------------------------------| 
A|--------------------------------------------| 
E|--3---3---3---3---3---3---2---2-------------| 


[Verse 1]
G
There's a notebook on the table
         Bm                        
You can take it to the store so you
  A                              G
 won't forget the groceries anymore
 G                                 
There's a rifle in the cabinet that
    Bm
 I used to fight a war
             A                     
But to this day, I don't know what 
           G
I wass fighting for
I'm fighting for


[Chorus]
G
Will you show me love as we get 
older
          Bm
And I'm falling at your feet
      A
After 30 years of service
     G
And one to fit our need
G
Show me love as we grow colder
         Bm
Let our love provide the heat
      A
That our older bones are missing
         G
But our heart's will never meet

[Verse 2] G There's a blanket on the sofa that Bm I used to keep you warm A When I find you fast asleep at half G past four G There's a record we keep turning Bm that reminds us of our youth A But there's still nothing as G beautiful as you [Chorus] G Will you show me love as we get older Bm And I'm falling at your feet A After 30 years of service G And one to fit our need G Show me love as we grow colder Bm Let our love provide the heat A That our older bones are missing G But our heart's will never meet [Post-Chorus] G As we grow colder Bm Love provide the heat A Older bones are missing G Hearts that never meet [Bridge] G Bm Because your hand belongs in my hand A Belongs in your hand, belongs with G me, with me G (Blanket on the sofa that I used to Bm keep you warm A There's a record we keep turning G that I use to turn you on) [Chorus] G Will you show me love as we get older Bm And I'm falling at your feet A After 30 years of service G And one to fit our need G Show me love as we grow colder Bm Let our love provide the heat A That our older bones are missing G But our heart's will never meet
Composición: Colaboración y revisión: Victor Tavares

Utilizamos cookies e outras tecnologias semelhantes para melhorar e personalizar sua experiência de uso. Ao navegar nos produtos, você concorda com as condições descritas em nossa Política de Privacidade.