Minha Estrela

Restart

A
123
X02220
Am
123
X02210
Bm
234
X24432
C9
34
X35533
D
123
XX0232
E4
123
022200
G
123
320003
G/B
123
X20033
Tono: G
[Intro] G  D  Am  C9
        G  D  Am  C9


       G              D           
E|----3--3---x-------2--3---x--
B|----3--3---x-------3--3---x--
G|---0---0---x------2---0---x--
D|---------------0-------------
A|-----------------------------
E|3----------------------------
                                  
E|2h3p2--------------------------------------| 
B|------0-----------------1--1---x-------3--3| 
G|--------0---------------2--2---x-------5--5| 
D|----------------------2----2---x------5---5| 
A|--------------------0--------------3-------| 
E|-------------------------------------------| 


Solo No Meio Dos Acordes Do 
Dedilhado


E|----3p2---------------| 
B|---------0------------| 
G|-------------0--------| 
D|----------------------| 
A|----------------------| 
E|----------------------| 



E|---3-2--0------------| 
B|-----------3---------| 
G|------------0--------| 
D|---------------------| 
A|---------------------| 
E|---------------------| 


G            D
Alguma coisa aconteceu
   Am                          
O tempo passou mas não apagou o 
C9
sentimento
 G           D
Você de novo apareceu
Am             C9
E fez bater mais forte o lado 
esquerdo do meu peito

Am             G
Eu acho que endoidei
         C9
Eu quero te ligar
    D
O que falar eu não sei
Am           G
Mas não vou ficar aqui
       C9        D
Eu preciso te dizer

      G            D
Eu te amo, eu te quero
             Am
Como uma estrela que
               C9
Fez não se apagar em mim
    G        D
O amor me pegou
               Am                  
Guardo no meu peito o que só me faz
   C9
 querer sorrir

Com você ( G D Am C9 ) ( G D Am C9 ) G D Alguma coisa aconteceu Am C9 O tempo passou mas não apagou o sentimento G D Você de novo apareceu Am C9 E fez bater mais forte o lado esquerdo do meu peito Am G Eu acho que endoidei C9 Eu quero te ligar D O que falar eu não sei Am G/B Mas não vou ficar aqui, G D Eu preciso te dizer G D Eu te amo, eu te quero Am Como uma estrela que C9 Fez não se apagar em mim G D O amor me pegou Am Guardo no meu peito o que só me faz C9 querer sorrir Am Ainda temos muito pra viver G Algum momento só eu e você G Meu amor vai te guiar D Deixa a vida nos levar Am Talvez um dia eu vá te encontrar G Um novo tempo, um outro lugar C9 Nossa estrela vai brilhar D Nossa estrela vai brilhar A E4 E eu te amo, eu te quero Bm Como uma estrela que D Fez não se apagar em mim A E4 O amor me pegou Bm Guardo no meu peito o que só me faz D querer sorrir A E4 E eu te amo, eu te quero Bm Como uma estrela que D Fez não se apagar em mim A E4 O amor me pegou Bm Guardo no meu peito o que só me faz D querer sorrir Com você
Composición: Koba / Pedro LucasColaboración y revisión: Nathalia OliveiraCarlos GabrielK-pop Lucasy más 8

Utilizamos cookies e outras tecnologias semelhantes para melhorar e personalizar sua experiência de uso. Ao navegar nos produtos, você concorda com as condições descritas em nossa Política de Privacidade.