Everybody Hurts

R.E.M.

A
123
X02220
Am
123
X02210
Bm
234
X24432
C
123
X32010
C/B
123
X22010
D
123
XX0232
Em
12
022000
F#
234
244322
G
123
320003
G/F#
1234
XX4433
G5/F#
134
255XXX
Tono: G
[Intro]


   D                        G
E|-------2-----------2----|-------
B|-----3---3-------3---3--|-----3-
G|---2-------2---2-------2|---0---
D|-0-----------0----------|-------
A|------------------------|-------
E|------------------------|-3-----

E|3-----------3----|      
B|--3-------3---3--|      
G|----0---0-------0| (x2) 
D|-----------------|      
A|-----------------|      
E|------3----------|      


[Primeira Parte]


   D                        G
E|-------2-----------2----|-------
B|-----3---3-------3---3--|-----3-
G|---2-------2---2-------2|---0---
D|-0-----------0----------|-------
A|------------------------|-------
E|------------------------|-3-----

E|3-----------3----|      
B|--3-------3---3--|      
G|----0---0-------0| (x3) 
D|-----------------|      
A|-----------------|      
E|------3----------|      



   D                        G     
E|-------2-----------2----|-------
B|-----3---3-------3---3--|-----3-
G|---2-------2---2-------2|---0---
D|-0-----------0----------|-------
A|------------------------|-------
E|------------------------|-3-----
              G5/F#
E|3----------------| 
B|--3-------3-----3| 
G|----0---0-----0--| 
D|-----------------| 
A|-----------------| 
E|------3-----2----| 


D                      G     
  When your day is long and the 
     D
night
                     G    D
The night is yours alone
                              G    
When you`re sure you`ve had enough 
         D
of this life
          G   G5/F#
Well hang on

[Pré-Refrão]


   Em                        A
E|-------0-----------0----|-------
B|-----0---0-------0---0--|-----2-
G|---0-------0---0-------0|---2---
D|------------------------|-------
A|------------------------|-0-----
E|-0-----------0----------|-------

E|0-----------0----|      
B|--2-------2------|      
G|----2---2--------| (x2) 
D|-----------------|      
A|------0----------|      
E|--------------3-2|      



   Em                        A
E|-------0-----------0----|-------
B|-----0---0-------0---0--|-----2-
G|---0-------0---0-------0|---2---
D|------------------------|-------
A|------------------------|-0-----
E|-0-----------0----------|-------

E|0-----0----------| 
B|--2--------------| 
G|----2------------| 
D|-----------------| 
A|-----------------| 
E|-----------------| 



   D                        G
E|-------2-----------2----|-------
B|-----3---3-------3---3--|-----3-
G|---2-------2---2-------2|---0---
D|-0-----------0----------|-------
A|------------------------|-------
E|------------------------|-3-----

E|3-----------3----|      
B|--3-------3---3--|      
G|----0---0-------0| (x5) 
D|-----------------|      
A|-----------------|      
E|------3----------|      



   D                        G     
E|-------2-----------2----|-------
B|-----3---3-------3---3--|-----3-
G|---2-------2---2-------2|---0---
D|-0-----------0----------|-------
A|------------------------|-------
E|------------------------|-3-----
              G5/F#
E|3----------------| 
B|--3-------3-----3| 
G|----0---0-----0--| 
D|-----------------| 
A|-----------------| 
E|------3-----2----| 


Em                    A     Em
   Don`t let yourself go
                 A     Em
Cause everybody cries
              A
And everybody hurts

    D      G
Sometimes
D G Sometimes everything is wrong D Now it`s time to sing along G D When your day is night alone (hold on, hold on) G D If you feel like letting go (hold on) G If you think you`ve had too much of D this life G G5/F# Well hang on [Refrão] Em A G Cause everybody hurts G/F# Em A G Take comfort in your friends G/F# Em A Everybody hurts [Ponte] F# Bm F# Don`t throw your hand Bm F# Bm C Whoa now don`t throw your hand G C If you feel like you`re alone no C/B Am no no you`re not alone [Segunda Parte] D G E|-------2-----------2----|------- B|-----3---3-------3---3--|-----3- G|---2-------2---2-------2|---0--- D|-0-----------0----------|------- A|------------------------|------- E|------------------------|-3----- E|3-----------3----| B|--3-------3---3--| G|----0---0-------0| (x3) D|-----------------| A|-----------------| E|------3----------| D G E|-------2-----------2----|------- B|-----3---3-------3---3--|-----3- G|---2-------2---2-------2|---0--- D|-0-----------0----------|------- A|------------------------|------- E|------------------------|-3----- G5/F# E|3----------------| B|--3-------3-----3| G|----0---0-----0--| D|-----------------| A|-----------------| E|------3-----2----| D G D If you`re on your own in this life G D The days and nights are long G When you think you`ve had too much D of this life G G5/F# To hang on [Refrão] Em A E|-------0-----------0----|------- B|-----0---0-------0---0--|-----2- G|---0-------0---0-------0|---2--- D|------------------------|------- A|------------------------|-0----- E|-0-----------0----------|------- E|0-----------0----| B|--2-------2------| G|----2---2--------| (x2) D|-----------------| A|------0----------| E|--------------3-2| Em A E|-------0-----------0----|------- B|-----0---0-------0---0--|-----2- G|---0-------0---0-------0|---2--- D|------------------------|------- A|------------------------|-0----- E|-0-----------0----------|------- E|0-----0----------| B|--2--------------| G|----2------------| D|-----------------| A|-----------------| E|-----------------| D G E|-------2-----------2----|------- B|-----3---3-------3---3--|-----3- G|---2-------2---2-------2|---0--- D|-0-----------0----------|------- A|------------------------|------- E|------------------------|-3----- E|3-----------3----| B|--3-------3---3--| G|----0---0-------0| (x11) D|-----------------| A|-----------------| E|------3----------| Em A Em Well everybody hurts sometimes A Em Everybody cries A And everybody hurts D G Sometimes D G But everybody hurts sometimes D G D G So hold on hold on hold on hold on D G D G Hold on hold on hold on hold on D G D G Everybody hurts D G D G D G You are not alone
Composición: Bill Berry / Michael Stipe / Mike Mills / Peter BuckColaboración y revisión: João AlmeidaLincoln GilAndrea VandaleteLucas F.O.S

Utilizamos cookies e outras tecnologias semelhantes para melhorar e personalizar sua experiência de uso. Ao navegar nos produtos, você concorda com as condições descritas em nossa Política de Privacidade.