Sabes

Reik

A
123
X02220
Bm
234
X24432
D
123
XX0232
Em
12
022000
G
123
320003
Tono: G
[Intro]


E|-------------------------------
B|--------2--0-/-----------------
G|----------------------2---0----
D|------4-----------0------------
A|---2---------------------------
E|---------------3---------------

E|----0---------------------| 
B|---------3---2------0-----| 
G|---2-------------------2--| 
D|0--------------2----------| 
A|--------------------------| 
E|--------------------------| 



E|--------------------------------
B|--------2--0-/------------------
G|----------------------2---0-----
D|------4-----------0-------------
A|---2------------------------0---
E|---------------3----------------

E|-------------------------| 
B|---0---------------------| 
G|------0---2--------------| 
D|-2-----------------------| 
A|-------------------------| 
E|-------------------------| 


 D                   G
Sabes, no pido nada mas
                      D
Que estar entre tus brazos
                   G
Y huir de todo el mal
          D          Em
Que a todo he renunciado
 D              A
Por estar junto a ti

[Pré-Refrão]

 D                 G
Sabes te quiero confesar
                D
Que estoy enamorado
            G
no dejo de pensar
         D         Em
Que soy solo un esclavo
 D      A
Que no sabe vivir, sin ti

[Refrão]

 Bm     G        D
Cuando llegaste tu
      A           Bm
Te metiste en mi ser
      G        D
Encendiste la luz
       A
Me llenaste de fe
Em D G Tanto tiempo busque D Em Pero al fin te encontre D A Tan perfecta como te imagine Bm G D Como aguja en un pajar A Bm Te busque sin cesar Bm G D Como huella en el mar A Tan dificil de hallar Em D G Tanto tiempo busque G D Em Pero al fin te encontre D A Tan perfecta, como te imagine [Segunda Parte] D G Sabes te quiero confesar D Que te encuentro irressistible D G No dejo de pensar D Em D Que haria lo imposible A Por quedarme cerca de ti [Refrão] Bm G D Cuando llegaste tu A Bm Te metiste en mi ser G D Encendiste la luz A Me llenaste de fe Em D G Tanto tiempo busque D Em Pero al fin te encontre D A Tan perfecta como te imagine Bm G D Como aguja en un pajar A Bm Te busque sin cesar Bm G D Como huella en el mar A Tan dificil de hallar Em D G Tanto tiempo busque G D Em Pero al fin te encontre D A Tan perfecta, como te imagine E|----------------1-------------- B|-0-----------------3----------- G|----2--------------------3----- D|----------2-----------0-------- A|-------0----------------------- E|------------------------------- E|----------------------| B|3---------------------| G|--5-------------------| D|-------5---------4----| A|---3------------------| E|----------------------| [Final] D G Sabes, no pido nada mas D Que estar entre tus braaazooos
Composición: Kiko Cibrian / Manuel RuizColaboración y revisión: Gabriel SilvaDaniel GonzalezJean CarlosSabrina Rossoy más 1

Utilizamos cookies e outras tecnologias semelhantes para melhorar e personalizar sua experiência de uso. Ao navegar nos produtos, você concorda com as condições descritas em nossa Política de Privacidade.