Medo da Chuva

Raul Seixas

A7
12
X02020
Bm
234
X24432
D
123
XX0232
D7
123
XX0212
F#m
34
244222
G
123
320003
G5/F#
134
255XXX
Tono: G
[Intro] A7  D  G  G5/F#

[Parte 1 de 6]


E|-------------------------------
B|-9/10-10-10-5-5-5-5-7--7/8-8-8-
G|-------------------------------
D|-6/7--7--7--2-2-2-2-4--4/5-5-5-
A|-------------------------------
E|-------------------------------

E|---------------------| 
B|8-7-5-3--------------| 
G|---------------------| 
D|5-4-2-0--------------| 
A|---------------------| 
E|---------------------| 


[Parte 2 de 6]


E|-2------2------3p2--------------
B|------3------3-----3------------
G|----2------2---------2----------
D|--------------------------------
A|--------------------------------
E|--------------------------------


[Parte 3 de 6]


E|-9/10-10-9-9-7-5------5---------
B|------------------5/7---5-------
G|-9/11-11-9-9-7-6----------------
D|--------------------------------
A|--------------------------------
E|--------------------------------


[Parte 4 de 6]


E|-7/9-7-5-----2---3p2-----2------
B|-----------3---------3--------3-
G|-7/9-7-6-2-----2-------2----2---
D|--------------------------------
A|--------------------------------
E|--------------------------------

E|2----3p2------2-----| 
B|----------3---------| 
G|---2--------2-------| 
D|--------------------| 
A|--------------------| 
E|--------------------| 


[Parte 5 de 6]


E|-3------------------------------
B|-3--------3---------------------
G|-0--0-2/4---4\2-0-2-0-2-2--2-4~-
D|-0------------------------------
A|-2------------------------------
E|-3------------------------------


[Parte 6 de 6]


E|-------10-------14-------10-
B|----------------------------
G|-10/11----11/14----14\11----
D|----------------------------
A|----------------------------
E|----------------------------

E|-----8-----7------5----3| 
B|------------------------| 
G|11\9---9\7----7\5---5\4-| 
D|------------------------| 
A|------------------------| 
E|------------------------| 


[Primeira Parte]

D É pena que você pense que eu sou A7 seu escravo Dizendo que eu sou seu marido e não D posso partir G Como as pedras imóveis na praia eu F#m fico ao teu lado Bm Sem saber A7 Dos amores que a vida me trouxe eu D não pude viver [Refrão] D7 G Eu perdi o meu medo, meu medo, D meu medo da chuva G Pois a chuva voltando pra terra D Traz coisas do ar G Aprendi o segredo, o segredo, o D segredo da vida A7 Vendo as pedras que choram sozinhas D no mesmo lugar [Segunda Parte] E não posso entender tanta gente A7 aceitando a mentira De que os sonhos desfazem aquilo que D o padre falou G Porque quando eu jurei meu amor eu F#m traí a mim mesmo Bm A7 Hoje eu sei que ninguém nesse mundo D D7 É feliz tendo amado uma vez, uma vez [Refrão] D7 G Eu perdi o meu medo, meu medo, D meu medo da chuva G Pois a chuva voltando pra terra D Traz coisas do ar G Aprendi o segredo, o segredo, o D segredo da vida A7 Vendo as pedras que choram sozinhas D no mesmo lugar A7 Vendo as pedras que choram sozinhas G D no mesmo lugar [Solo] E|-------------------------------- B|-------------------------------- G|-------------7-7----7h9-7------- D|------5-7/9------9--------9/7-5- A|-5-7---------------------------- E|-------------------------------- E|--------2-----------| B|--------3-----------| G|----7---2-----------| D|7/9-----0-----------| A|--------------------| E|--------------------|
Composición: Doc Pomus / Mort Shuman / Paulo Coelho / Raul SeixasColaboración y revisión: Gustavo CunhaPaulo BernardoGetúlio VasconcelosDouglas Rufattoy más 13
videoclase Medo da Chuva (aula de violão completa)

Utilizamos cookies e outras tecnologias semelhantes para melhorar e personalizar sua experiência de uso. Ao navegar nos produtos, você concorda com as condições descritas em nossa Política de Privacidade.