You've Got a Friend In Me

Randy Newman

A#7
34
X13131
A/C#
1234
X4X255
A7
12
X02020
Am
123
X02210
B/D#
1234
X6X477
B7
1234
X21202
B7M(5+)
1234
X2X343
Bb/D
1234
X5X366
Bb6
134
X1303X
Bb7
34
X13131
C
123
X32010
C/E
123
032010
C/G
1234
332X1X
C7
1234
X3231X
D7
123
XX0212
Dm
123
XX0231
E
123
022100
E/G#
1234
4X245X
Em
12
022000
F
234
133211
F#º
1234
2X121X
G
123
320003
G5+
13
3X100X
G7
34
353433
Gm
34
355333
Tono: G
[Intro] C  Am  A#7  C/G  G7
        C  G5+  Gm  G5+


[Dedilhado]

 Parte 1 de 3
             C                  
E|---------------0-x---------x----
B|--------1-3--4---x--1------x----
G|------0------4---x--2---2--x----
D|----2------------x---------x----
A|-3-----------2---x----0----x----
E|-----------------x---------x----



Parte 2 de 3
             A#7       C/G         
E|--------x---------x-------------
B|-4---3--x--1------x---------0---
G|--------x------0--x---------0---
D|-4------x--2------x--4---3--3---
A|--------x---------x--6---5--5---
E|---4----x----3----x----3----3---



 Parte 3 de 3
             C    G5+  Gm  G5+
E|---0----------------------------
B|---1----------------------------
G|---0--0-0--0-0-0---0-0-0--------
D|---2--1-1--0-0-1---1-1-1--------
A|-3----2-2--1-1-2---2-2-2--------
E|------3----3-----3--------------


[Primeira Parte]

 C              G       C  C7
You've got a friend in me
 F              F#º     C
You've got a friend in me
F          C/E E               Am
 When the road   looks rough ahead
            F         C/E         
And you're miles and miles from 
    E         Am
your nice warm bed

F      F#º    C       C/E E   
  You just remember what your 
E/G#     Am
old pal said
     D7             G7      C  A7
For you've got a friend in me
       D7             G7      C  
Yeah, you've got a friend in me
Am  A#7  C/G  G7


[Primeira parte - 1ª estrofe]


 Parte 1 de 4
             C        G          
E|-------------------------------
B|---1-1-1----0-0-0----1-3-1---1-
G|---0-0-0----0-0-0----0-3-0---3-
D|---2-2-2----0-0-0----2-3-2---2-
A|-3-----------------3-------3---
E|----------3--------------------
  C     C7
E|-----------| 
B|1-1--------| 
G|3-3--------| 
D|2-2--------| 
A|-----------| 
E|-----------| 



 Parte 2 de 4
             F        F#º      
E|-----------------------0-------
B|---1-1-1----1-1-1------1--4-5--
G|---2-2-2----2-2-2------0--4-5--
D|---3-3-3----1-1-1----2-2-------
A|-------------------3------2/3--
E|-1--------2--------------------
  C
E|x--x-------| 
B|x--x-------| 
G|x--x-------| 
D|x--x-------| 
A|x--x-------| 
E|x--x-------| 



 Parte 3 de 4
             F       C/E     E     
E|--------------------------------
B|---1-1-1---1-1-1---0-0-0----1-1-
G|---2-2-2---0-0-0---1-1-1----2-2-
D|---3-3-3---2-2-2---2-2-2----2-2-
A|--------------------------0-----
E|-1-------0-------0--------------
     Am
E|----------| 
B|1---------| 
G|2---------| 
D|2---------| 
A|----------| 
E|----------| 



 Parte 4 de 4
             F       C/E     E     
E|--------------------------------
B|---1-1-1---1-1-1---0-0-0----1-1-
G|---2-2-2---0-0-0---1-1-1----2-2-
D|---3-3-3---2-2-2---2-2-2----2-2-
A|--------------------------0-----
E|-1-------0-------0--------------
     Am
E|----------| 
B|1---------| 
G|2---------| 
D|2---------| 
A|----------| 
E|----------| 


[Primeira parte - 2ª estrofe]


 Parte 1 de 5
             F  F#º C  C/G E  E/G# 
E|--------------------------------
B|-1--1---1--1---0--5----1-1-1-1--
G|-2--2---0--0---1--4----2-2-2-2--
D|-3--1---2--2---2--2----2-2-2-2--
A|--------3--------------0--------
E|-1--2------3---0--4-------------



 Parte 2 de 5
             D7       G7         
E|---2-2-2----1-1-1---------------
B|---1-1-1----0-0-0----1-1-1----2-
G|---2-2-2----0-0-0----0-0-0----0-
D|-0-------------------2-2-2----2-
A|-------------------3--------0---
E|----------3---------------------
  C      A7
E|----------| 
B|2-2-------| 
G|0-0-------| 
D|2-2-------| 
A|----------| 
E|----------| 



 Parte 3 de 5
             D7       G7
E|---2-2-2----1-1-1---------------
B|---1-1-1----0-0-0---------------
G|---2-2-2----0-0-0---------------
D|-0------------------------------
A|--------------------------------
E|----------3---------------------



 Parte 4 de 5
             C                  
E|---------------0-x---------x----
B|--------1-3--4---x--1------x----
G|------0------4---x--2---2--x----
D|----2------------x---------x----
A|-3-----------2---x----0----x----
E|-----------------x---------x----


Parte 5 de 5 A#7 C/G E|--------x---------x------------- B|-4---3--x--1------x---------0--- G|--------x------0--x---------0--- D|-4------x--2------x--4---3--3--- A|--------x---------x--6---5--5--- E|---4----x----3----x----3----3--- [Segunda parte] C G C C7 You've got a friend in me F F#º C You've got a friend in me F C/E E Am You got troubles, I got 'em too F C/E E There isn't anything I wouldn't do Am for you F C/E E If we stick together we can see Am it through D7 G7 C A7 'Cause you've got a friend in me D7 G7 C C7 Yeah, you've got a friend in me [Dedilhado segunda parte] Parte 1 de 7 C G E|------------------------------- B|---1-1-1----0-0-0----1-3-1---1- G|---0-0-0----0-0-0----0-3-0---3- D|---2-2-2----0-0-0----2-3-2---2- A|-3-----------------3-------3--- E|----------3-------------------- C C7 E|-----------| B|1-1--------| G|3-3--------| D|2-2--------| A|-----------| E|-----------| Parte 2 de 7 F F#º E|-----------------------0------- B|---1-1-1----1-1-1------1--4-5-- G|---2-2-2----2-2-2------0--4-5-- D|---3-3-3----1-1-1----2-2------- A|-------------------3------2/3-- E|-1--------2-------------------- C E|x--x-------| B|x--x-------| G|x--x-------| D|x--x-------| A|x--x-------| E|x--x-------| Parte 3 de 7 F C/E E E|-------------------------------- B|---1-1-1---1-1-1---0-0-0----1-1- G|---2-2-2---0-0-0---1-1-1----2-2- D|---3-3-3---2-2-2---2-2-2----2-2- A|--------------------------0----- E|-1-------0-------0-------------- Am E|----------| B|1---------| G|2---------| D|2---------| A|----------| E|----------| Parte 4 de 7 F C/E E E|-------------------------------- B|---1-1-1---1-1-1---0-0-0----1-1- G|---2-2-2---0-0-0---1-1-1----2-2- D|---3-3-3---2-2-2---2-2-2----2-2- A|--------------------------0----- E|-1-------0-------0-------------- Am E|----------| B|1---------| G|2---------| D|2---------| A|----------| E|----------| Parte 5 de 7 F C/E E E|-------------------------------- B|---1-1-1---1-1-1---0-0-0----1-1- G|---2-2-2---0-0-0---1-1-1----2-2- D|---3-3-3---2-2-2---2-2-2----2-2- A|--------------------------0----- E|-1-------0-------0-------------- Am E|----------| B|1---------| G|2---------| D|2---------| A|----------| E|----------| Parte 6 de 7 D7 G7 E|---2-2-2----1-1-1--------------- B|---1-1-1----0-0-0----1-1-1----2- G|---2-2-2----0-0-0----0-0-0----0- D|-0-------------------2-2-2----2- A|-------------------3--------0--- E|----------3--------------------- C A7 E|----------| B|2-2-------| G|0-0-------| D|2-2-------| A|----------| E|----------| Parte 7 de 7 D7 G7 E|---2-2-2----1-1-1--------------- B|---1-1-1----0-0-0----1-1-0----1- G|---2-2-2----0-0-0----0-0-0----3- D|-0-------------------2-2-2----2- A|-------------------3--------3--- E|----------3--------------------- C C7 E|----------| B|1-1-------| G|3-3-------| D|2-2-------| A|----------| E|----------| [Terceira parte] F Some other folks might be B7 Little bit smarter than I am C7 B7 C7 B7 Bb7 Bigger and stronger too B7 C7 maybe B7 A/C# Bb/D But none of them would ever B/D# Em A7 love you the way I do Dm G It's me and you boy [Dedilhado terceira parte] Parte 1 de 4 F B7 E|-------------------------------- B|---1-1-1---1-1-1---4-4-4----4-4- G|---2-2-2---2-2-2---2-2-2----2-2- D|---3-3-3---3-3-3---4-4-4----4-4- A|-----------------2--------2----- E|-1-------1---------------------- E|----------| B|4---------| G|2---------| D|4---------| A|----------| E|----------| Parte 2 de 4 C7 B7 E|------------------------------- B|---5-5-5---4-4-4--5--4--3---4-- G|---3-3-3---2-2-2--3--2--1---2-- D|---5-5-5---4-4-4--5--4--3---4-- A|-3-------2--------3--2--1---2-- E|------------------------------- C7B7 Bb7 B7 C7 E|-----------| B|5-5-5-5----| G|3-3-3-3----| D|5-5-5-5----| A|3----------| E|-----------| Parte 3 de 4 B7 A/C# Bb/D E|-------------------------------- B|---4-4-4----2-2-2----3-3-3----4- G|---2-2-2----2-2-2----3-3-3----4- D|---4-4-4----2-2-2----3-3-3----4- A|-2--------4--------5--------6--- E|-------------------------------- B/D# E|----------| B|4-4-------| G|4-4-------| D|4-4-------| A|----------| E|----------| Parte 4 de 4 Em A7 E|---------------------1-1-1----3- B|---0-0-0----2-2-2----3-3-3----0- G|---0-0-0----0-0-0----2-2-2----0- D|---2-2-2----2-2-2--0------------ A|----------0--------------------- E|-0--------------------------3--- Dm G E|3-3-------| B|0-0-------| G|0-0-------| D|----------| A|----------| E|----------| [Quarta parte] C B7M(5+) Bb6 C C7 And as the years go by F F#º C Our friendship will never die F F#º You're going to see it's our C E/G# Am de sti ny D7 G7 C A7 You've got a friend in me D7 G7 C A7 You've got a friend in me D7 G C Am You've got a friend in me A#7 C/G G7 C [Quarta parte - 1ª estrofe] Parte 1 de 3 C B7M(5+) Bb6 C E|---0---------------------------- B|---1--0-0-----3-3--1---1-1-1---- G|---0--0-0-----0-0--0---3-3-3---- D|---2--1-1-----0-0--2---2-2-2---- A|-3----2-------1------3---------- E|-------------------------------- Parte 2 de 3 F F#º E|-----------------------0------- B|---1-1-1----1-1-1------1--4-5-- G|---2-2-2----2-2-2------0--4-5-- D|---3-3-3----1-1-1----2-2------- A|-------------------3------2/3-- E|-1--------2-------------------- C E|x--x-------| B|x--x-------| G|x--x-------| D|x--x-------| A|x--x-------| E|x--x-------| Parte 3 de 3 F F#º E|----------------------------0--- B|---1-1-1----1-1-1--1--5-----1--- G|---2-2-2----2-2-2--0--4-----2--- D|---3-3-3----1-1-1--2--2-----2--- A|-------------------3--------0--- E|-1--------2-----------4--------- [Quarta parte - 2ª estrofe] Parte 1 de 5 D7 G7 E|---2-2-2----1-1-1--------------- B|---1-1-1----0-0-0----1-1-1----2- G|---2-2-2----0-0-0----0-0-0----0- D|-0-------------------2-2-2----2- A|-------------------3--------0--- E|----------3--------------------- C A7 E|----------| B|2-2-------| G|0-0-------| D|2-2-------| A|----------| E|----------| Parte 2 de 5 D7 G7 E|---2-2-2----1-1-1--------------- B|---1-1-1----0-0-0----1-0-2----2- G|---2-2-2----0-0-0----0-0-0----0- D|-0-------------------2-2-2----2- A|-------------------3--------0--- E|----------3--------------------- C A7 E|----------| B|2-2-------| G|0-0-------| D|2-2-------| A|----------| E|----------| Parte 3 de 5 D7 G7 E|---2-2-2----1-1-1--------------- B|---1-1-1----0-0-0--------------- G|---2-2-2----0-0-0--------------- D|-0------------------------------ A|-------------------------------- E|----------3--------------------- Parte 4 de 5 C E|---------------0-x---------x---- B|--------1-3--4---x--1------x---- G|------0------4---x--2---2--x---- D|----2------------x---------x---- A|-3-----------2---x----0----x---- E|-----------------x---------x---- Parte 5 de 5 A#7 C/G E|--------x---------x------------- B|-4---3--x--1------x---------0--- G|--------x------0--x---------0--- D|-4------x--2------x--4---3--3--- A|--------x---------x--6---5--5--- E|---4----x----3----x----3----3--- G7 C E|0---------| B|1---------| G|0---------| D|2---------| A|3---------| E|----------|
Composición: Randy NewmanColaboración y revisión: Getúlio VasconcelosGuilherme CoelhoVinicius DiasLucas Samuel