Tono: G
#1t1#           Keyboard intro                                               
#1t2#E-------|--10-------------|-----------------------|---------10--|-------
B-------|------10-----13--|-----10-----12---------|--10---------|-------
G---4:--|-----------------|----------------12-----|-------------|-------
D---4:--|-----------------|-----------------------|-------------|-------
A-------|-----------------|-----------------------|-------------|-------
D-------|-----------------|-----------------------|-------------|-------#/1t2##/1t1#
                                                                        

#2t1#                                              Main Riff                 
#2t2#E--------------|------------------------|-------------------------------
B---10-----13--|-----10-----12----------|-------------------------------
G--------------|----------------12------|-------------------------------
D--------------|--------------------12--|-----5--\--7--------8--\--7----
A--------------|------------------------|-----3--\--5--------6--\--5----
D--------------|------------------------|--------------0--0-------------#/2t2##/2t1#
                                                                        

                                                                        
#3t1##3t2#E------------------------------------------|----------------------------
B------------------------------------------|----------------------------
G------------------------------------------|----------------------------
D---------5--\--7-----5--\--7-----8--\--7--|----------------------------
A---------3--\--5-----3--\--5-----6--\--5--|----------------------------
D---0--0-----------0-----------0-----------|----------------------------#/3t2##/3t1#
                                                                        

#4t1#    Organ Chords Played During Chorus                                   
#4t2#E---10-----------------|--8---------------------|-----10----------------
B---10-----------------|--10--------------------|-----12----------------
G---11-----------------|--9---------------------|-----10----------------
D----------------------|------------------------|-----12----------------
A----------------------|------------------------|-----------------------
D----------------------|------------------------|-----------------------#/4t2##/4t1#
                                                                        

#5t1#                                              Keyboard Interlude        
#5t2#E---------|--10-----------------------|--||---22-----24-----------------
B---------|--10-----------------------|--||-----------------------------
G---------|--10-----------------------|--||*----------------------------
D---------|--12-----------------------|--||*--0-------------------------
A---------|---------------------------|--||-----------------------------
D---------|---------------------------|--||----------14-----15----------#/5t2##/5t1#
                                                                        

                                                                        
#6t1##6t2#E---22------------24-----22-----21-----24-----------24------------24----
B-----------------------------------------------------------------------
G---------------------------------------------0-------------------------
D---0--------------------0----------------------------------------------
A-----------------------------------------------------------------------
D----------15-----14------------11-----14-----------14-----15-----14----#/6t2##/6t1#
                                                                        

#7t1#                                       4x     Keyboard Outro            
#7t2#E-------------------24-----24-----21---||-----10------------|-----------
B--------------------------------------||---------------10--|--13-------
G-------------------------------------*||-------------------|-----------
D----------0--------------------------*||-------------------|-----------
A------12-----3------------------------||-------------------|-----------
D-------------------14-----14-----11---||-------------------|-----------#/7t2##/7t1#
                                                                        

                                                                        
#8t1##8t2#E----------|----------------|------------|--10---------------|----------
B---10-----|--12-----10-----|--12--------|------------10-----|----------
G----------|----------------|------------|-------------------|----------
D----------|----------------|------------|-------------------|----------
A----------|----------------|------------|-------------------|----------
D----------|----------------|------------|-------------------|----------#/8t2##/8t1#
                                                                        

                                                                        
#9t1##9t2#E--------------|---------------|------------|-----10--------|-----------
B---13-----10--|-----12-----8--|------------|---------------|-----------
G--------------|---------------|-----12-----|---------------|-----------
D--------------|---------------|------------|---------------|-----------
A--------------|---------------|------------|---------------|-----------
D--------------|---------------|------------|---------------|-----------#/9t2##/9t1#
                                                                        

                                                                        
#10t1##10t2#E---12-----|--------12--------|--------10-------------------|--||-------
B----------|------------------|---------------13-----10-----|--||-------
G----------|------------------|-----------------------------|--||*------
D----------|------------------|-----------------------------|--||*------
A----------|------------------|-----------------------------|--||-------
D----------|------------------|-----------------------------|--||-------#/10t2##/10t1#
                                                                        

#11t1#                       2x                                               
#11t2#E---10------------10---||----------------------|------------|-----------
B----------13----------||-----10---------------|------------|-----------
G---------------------*||---------------12-----|-----13-----|-----------
D---------------------*||----------------------|------------|-----12----
A----------------------||----------------------|------------|-----------
D----------------------||----------------------|------------|-----------#/11t2##/11t1#
                                                                        

                                                                        
#12t1##12t2#E----------------|-------------------|-------------------|--------------
B----------------|-------------------|-------------------|--------------
G----------------|-------------------|-----16------------|--------------
D----------------|-----10------------|------------17-----|--------------
A------12--------|------------12-----|-------------------|-----17-------
D----------------|-------------------|-------------------|--------------#/12t2##/12t1#
                                                                        

                                                                        
                                                               
This song is pretty straight forward. I have included the keyboard 
parts. The interlude must be played by two people.
Composición: RammsteinColaboración y revisión: Tiago Leon