Du Hast

Rammstein

A5
13
57XXXX
B5
13
79XXXX
C5
13
810XXXX
D5
110ª3
1012XXXX
E5
1
02XXXX
G5
13
35XXXX
Tono: G
Introdução:

(Riff 1)


   A5 G5 E5
E|--------------------------------
B|--------------------------------
G|--------------------------------
D|--------------------------------
A|-7\5--2--2--2-2-2--2-2----------
E|-5\3--0--0--0-0-0--0-0----------



   A5 G5   E5
E|--------------------------------
B|--------------------------------
G|--------------------------------
D|--------------------------------
A|-7--5----2--2--2-2-2--2-2-2-2---
E|-5--3p0--0--0--0-0-0--0-0-0-0---



   A5 G5 E5
E|--------------------------------
B|--------------------------------
G|--------------------------------
D|--------------------------------
A|-7\5--2--2--2-2-2--2-2----------
E|-5\3--0--0--0-0-0--0-0----------



   A5 G5   E5
E|--------------------------------
B|--------------------------------
G|--------------------------------
D|--------------------------------
A|-7--5----2--2--2-2-2--2-2-2-2---
E|-5--3p0--0--0--0-0-0--0-0-0-0---



   A5 G5 E5
E|--------------------------------
B|--------------------------------
G|--------------------------------
D|--------------------------------
A|-7\5--2--2--2-2-2--2-2----------
E|-5\3--0--0--0-0-0--0-0----------



   A5 G5   E5
E|--------------------------------
B|--------------------------------
G|--------------------------------
D|--------------------------------
A|-7--5----2--2--2-2-2--2-2-2-2---
E|-5--3p0--0--0--0-0-0--0-0-0-0---



   G5 A5
E|--------------------------------
B|--------------------------------
G|--------------------------------
D|--------------------------------
A|-5\7--7--7--7-7-7--7-7-7-7------
E|-3\5--5--5--5-5-5--5-5-5-5------



Primeira Parte:

Du
Du hast
Du hast mich
Du
Du hast
Du hast mich
Du
Du hast
Du hast mich
Du
Du hast
Du hast mich

(Riff 1)


Segunda Parte:

Du
Du hast
Du hast mich Du hast mich Du hasst mich gefragt Du hasst mich gefragt Du hasst mich gefragt Und ich habe nichts gesagt Terceira Parte: (Riff 2) A5 G5 E5 E|-------------------------------- B|-------------------------------- G|-------------------------------- D|-------------------------------- A|-7\5--2--2--2-2-2--2-2---------- E|-5\3--0--0--0-0-0--0-0---------- A5 G5 E5 E|-------------------------------- B|-------------------------------- G|-------------------------------- D|-------------------------------- A|-7--5----2--2--2-2-2--2-2-2-2--- E|-5--3p0--0--0--0-0-0--0-0-0-0--- G5 A5 E|-------------------------------- B|-------------------------------- G|-------------------------------- D|-------------------------------- A|-5\7--7--7--7-7-7--7-7-7-7------ E|-3\5--5--5--5-5-5--5-5-5-5------ G5 A5 E|-------------------------------- B|-------------------------------- G|-------------------------------- D|-------------------------------- A|-5\7--7--7--7-7-7--7-7-7-7------ E|-3\5--5--5--5-5-5--5-5-5-5------ A5 C5 E|-------------------------------- B|-------------------------------- G|-------------------------------- D|-------------------------------- A|-7/10--10--10--10-10-10--10-10-- E|-5/-8---8---8---8--8--8---8--8-- D5 B5 E|-------------------------------- B|-------------------------------- G|-------------------------------- D|-------------------------------- A|-12--9--9--9--9--9-9-9--9-9-9-9- E|-10--7--7--7--7--7-7-7--7-7-7-7- A5 G5 E5 E|-------------------------------- B|-------------------------------- G|-------------------------------- D|-------------------------------- A|-7\5--2--2--2-2-2--2-2---------- E|-5\3--0--0--0-0-0--0-0---------- A5 G5 E5 E|-------------------------------- B|-------------------------------- G|-------------------------------- D|-------------------------------- A|-7--5----2--2--2-2-2--2-2-2-2--- E|-5--3p0--0--0--0-0-0--0-0-0-0--- Willst du bis der tod euch scheidet Treu ihr sein für alle tage? (Ja) nein (Ja) nein Willst du bis der tod euch scheidet Treu ihr sein für alle tage? (Ja) nein (Ja) nein Quarta Parte: Du Du hast Du hast mich Du Du hast Du hast mich (Riff 2) Du Du hast Du hast mich Du hast mich Du hasst mich gefragt Du hasst mich gefragt Du hasst mich gefragt Und ich habe nichts gesagt Quinta Parte: (Riff 2) Willst du bis der tod euch scheidet Treu ihr sein für alle tage? (Ja) nein (Ja) nein Willst du bis zum tod der scheide Sie lieben auch in schlechten tagen? (Ja) nein (Ja) nein Willst du bis der tod euch scheidet Treu ihr sein? (Ja) nein (Ja) nein
Composición: Oliver Riedel / Paul Landers / Rammstein / Richard Z. KruspeColaboración y revisión: Vinícius DiasTiago Leon
videoclase Du Hast (aula de guitarra)

Utilizamos cookies e outras tecnologias semelhantes para melhorar e personalizar sua experiência de uso. Ao navegar nos produtos, você concorda com as condições descritas em nossa Política de Privacidade.