Donaukinder

Rammstein

Tono: G
(turning D|A|D|G|B|E)

#1t1#(intro/chorus)
#1t2#E |--------------------------------------------------------------------------|
B |--------------------------------------------------------------------------|
G |--------------------------------------------------------------------------|
D |-0--5--3--2--3----3-7--------0--5--3--2--3--7--0--------------------------|
A |-0--5--3--2--3----3-7--------0--5--3--2--3--7--0--------------------------|
D |-0--5--3--2--3----3-7-7/1(b9)--0--5--3--2--3--7--0------------------------|#/1t2##/1t1#

#2t1#(bridge)           
#2t2#E |--------------------------------------------------------------------------|
B |--------------------------------------------------------------------------|
G |-7-7-7-7-7-7-7-7--------7-7-7-7-7-7-7-7-5-5-5-5-5-5---------------------|
D |-x-x-x-x-x-x-x-x--------x-x-x-x-x-x-x-x-x-x-x-x-x-x-x---------------------|
A |-5-5-5-5-5-5-5-5--------5-5-5-5-5-5-5-5-3-3-3-3-3-3---------------------|
D |------------------3--5----------------------------------------------------|#/2t2##/2t1#

#3t1#(pre-break)      
#3t2#E |--------------------------------------------------------------------------|
B |--------------------------------------------------------------------------|
G |--------------------------------------------------------------------------|
D |--------------------------------------------------------------------------|
A |--------------------------------------------------------------------------|
D |-7-7-7-7-7-7-7-7-10-10-10-10-10-10-10-10----------------------------------|#/3t2##/3t1#

(then BREAK)

#4t1#(solo)
#4t2#E |------------18-------------------------------------------18------------------|
B |-22-20-22~--------------------18~-18-20-17~---22-20-22~----------------------|
G |---------------19~--1(b9)21-22~-------------------------------19~--21-19~-18~--|
D |-----------------------------------------------------------------------------|
A |-----------------------------------------------------------------------------|
D |-----------------------------------------------------------------------------|#/4t2##/4t1#

#5t1##5t2#E |------------20-18----------------------------------------------18-17/21-22~--|
B |-22-20-22~--------------------------------------------20-18-17---------------|
G |------------------19~--1(b9)21-22~-22-22^-21---22-21-1(b9)-----------------------|
D |-----------------------------------------------------------------------------|
A |-----------------------------------------------------------------------------|
D |--------------------------------------------------------------------------#/5t2##/5t1#
Composición: Till LindemannColaboración y revisión: Lucas Bauer