Deutschland

Rammstein

A
123
X02220
Bb
234
X13331
C
123
X32010
D
123
XX0232
D#
234
X65343
G
123
320003
Tono: G
[Intro]


E|-------|-------|--------|-------
B|-------|-------|--------|-------
G|-------|-------|--------|-------
C|2------|----7-9|12------|----12-
G|2------|----7-9|12------|----12-
C|2------|----7-9|12------|----12-

E|-|-------|-------|---------|    
B|-|-------|-------|---------|    
G|-|-------|-------|---------|    
C|2|3------|2------|---------| x2 
G|2|3------|2------|---------|    
C|2|3------|2------|/14~~----|    



D|0-0-7-0-0-8-0-0-10-0-0-7-0-0-8-
B|-------------------------------
G|-------------------------------
D|-------------------------------
A|-------------------------------
E|-------------------------------

D|5|0-0-7-0-0-8-0-0-12-0-0-7-0-0-8-5|    
B|-|--------------------------------|    
G|-|--------------------------------|    
D|-|--------------------------------| x2 
A|-|--------------------------------|    
E|-|--------------------------------|    



E|-------|-------|--------|-------
B|-------|-------|--------|-------
G|-------|-------|--------|-------
C|2------|----7-9|12------|----12-
G|2------|----7-9|12------|----12-
C|2------|----7-9|12------|----12-

E|-|-------|-------|---------| 
B|-|-------|-------|---------| 
G|-|-------|-------|---------| 
C|2|3------|2------|---------| 
G|2|3------|2------|---------| 
C|2|3------|2------|/14~~----| 


[Primeira Parte]

Nothing is played during the verse

[Refrão]


E|-------|-------|--------|-------
B|-------|-------|--------|-------
G|-------|-------|--------|-------
C|2------|----7-9|12------|----12-
G|2------|----7-9|12------|----12-
C|2------|----7-9|12------|----12-

E|-|-------|-------|---------| 
B|-|-------|-------|---------| 
G|-|-------|-------|---------| 
C|2|3------|2------|---------| 
G|2|3------|2------|---------| 
C|2|3------|2------|/14~~----| 



E|-------|-------|-------|------|
B|-------|-------|-------|------|
G|-------|-------|-------|------|
C|2------|------2|0------|-----0|
G|2------|------2|0------|-----0|
C|2------|------2|0------|-----0|

E|-------|-------|-------| 
B|-------|-------|-------| 
G|-------|-------|-------| 
C|3------|2------|2------| 
G|3------|2------|2------| 
C|3------|2------|2------| 



D|0-0-7-0-0-8-0-0-10-0-0-7-0-0-8-
B|-------------------------------
G|-------------------------------
D|-------------------------------
A|-------------------------------
E|-------------------------------

D|5| 
B|-| 
G|-| 
D|-| 
A|-| 
E|-| 


[Segunda Parte]


E|-----------------------|-------
B|-----------------------|-------
G|-----------------------|-------
D|-----------------------|-------
A|-----------------------|-------
C|2-2--2-2--2-2--2-2--2-2|2-2--2-
  * *  * *  * *  * *  * * * *  * 

E|----------------|-----------------
B|----------------|-----------------
G|----------------|-----------------
D|----------------|-----------------
A|----------------|-----------------
C|2--2-2--2-2--2-2|3-3--3-3--3-3--3-
*  * *  * *  * * * *  * *  * *  * 

------|-----------------------| 
------|-----------------------| 
------|-----------------------| 
------|-----------------------| 
------|-----------------------| 
3--3-3|3-3--3-3--3-3--3-3--3-3| 
*  * * * *  * *  * *  * *  * *  



E|-----------------------|-------
B|-----------------------|-------
G|-----------------------|-------
D|-----------------------|-------
A|-----------------------|-------
E|0-0--0-0--0-0--0-0--0-0|0-0--0-
  * *  * *  * *  * *  * * * *  * 

E|----------------|-----------------
B|----------------|-----------------
G|----------------|-----------------
D|----------------|-----------------
A|----------------|-----------------
E|0--0-0--0-0--0-0|2-2--2-2--2-2--2-
*  * *  * *  * * * *  * *  * *  * 

------|---------| 
------|---------| 
------|---------| 
------|---------| 
------|---------| 
2--2-2|2-2------| 
*  * * * *        


[Refrão]


E|-------|-------|--------|-------
B|-------|-------|--------|-------
G|-------|-------|--------|-------
C|2------|----7-9|12------|----12-
G|2------|----7-9|12------|----12-
C|2------|----7-9|12------|----12-

E|-|-------|-------|---------| 
B|-|-------|-------|---------| 
G|-|-------|-------|---------| 
C|2|3------|2------|---------| 
G|2|3------|2------|---------| 
C|2|3------|2------|/14~~----| 



E|-------|-------|-------|------|
B|-------|-------|-------|------|
G|-------|-------|-------|------|
C|2------|------2|0------|-----0|
G|2------|------2|0------|-----0|
C|2------|------2|0------|-----0|

E|-------|-------|-------| 
B|-------|-------|-------| 
G|-------|-------|-------| 
C|3------|2------|2------| 
G|3------|2------|2------| 
C|3------|2------|2------| 



D|0-0-7-0-0-8-0-0-10-0-0-7-0-0-8-
B|-------------------------------
G|-------------------------------
D|-------------------------------
A|-------------------------------
E|-------------------------------

D|5| 
B|-| 
G|-| 
D|-| 
A|-| 
E|-| 


[Final]


E|-------|-------|--------|-------
B|-------|-------|--------|-------
G|-------|-------|--------|-------
C|2------|----7-9|12------|----12-
G|2------|----7-9|12------|----12-
C|2------|----7-9|12------|----12-

E|-|-------|-------|---------| 
B|-|-------|-------|---------| 
G|-|-------|-------|---------| 
C|2|3------|2------|---------| 
G|2|3------|2------|---------| 
C|2|3------|2------|/14~~----| 




E|-------|-------|-------|------|
B|-------|-------|-------|------|
G|-------|-------|-------|------|
C|2------|------2|0------|-----0|
G|2------|------2|0------|-----0|
C|2------|------2|0------|-----0|

E|-------|-------|-------| 
B|-------|-------|-------| 
G|-------|-------|-------| 
C|3------|2------|2------| 
G|3------|2------|2------| 
C|3------|2------|2------| 




D|0-0-7-0-0-8-0-0-10-0-0-7-0-0-8-
B|-------------------------------
G|-------------------------------
D|-------------------------------
A|-------------------------------
E|-------------------------------

D|5| 
B|-| 
G|-| 
D|-| 
A|-| 
E|-| 


[Intro] D  G  A  C  C  D  D#  D

D
Du (du hast, du hast, du hast, du 
hast)
            D#
Hast viel geweint (geweint, geweint,
 geweint, geweint)
            C
Im Geist getrennt (getrennt, 
getrennt, getrennt, getrennt)
           D
Im Herz vereint (vereint, vereint, 
vereint, vereint)
D Wir (wir sind, wir sind, wir sind, wir sind) D# Sind schon sehr lang zusammen (ihr seid, ihr seid, ihr seid, ihr seid) C Dein Atem kalt (so kalt, so kalt, so kalt, so kalt) D Das Herz in Flammen (so heiß, so heiß, so heiß, so heiß) D Du (du kannst, du kannst, du kannst, du kannst) D# Ich (ich weiß, ich weiß, ich weiß, ich weiß) C Wir (wir sind, wir sind, wir sind, wir sind) D Ihr (ihr bleibt, ihr bleibt, ihr bleibt, ihr bleibt) D Deutschland! Mein Herz in Flammen C Will dich lieben und verdammen D# Deutschland! Dein Atem kalt D So jung, und doch so alt D G A C C D D# D Deutschland! D Ich (du hast, du hast, du hast, du hast) D# Ich will dich nie verlassen (du weinst, du weinst, du weinst, du weinst) C Man kann dich lieben (du liebst, du liebst, du liebst, du liebst) D Und will dich hassen (du hasst, du hasst, du hasst, du hasst) D Überheblich, überlegen D# Übernehmen, übergeben C Überraschen, überfallen D Deutschland, Deutschland über allen D Deutschland! Mein Herz in Flammen C Will dich lieben und verdammen D# Deutschland! Dein Atem kalt D So jung, und doch so alt D Deutschland! Deine Liebe C Ist Fluch und Segen Bb D# Deutschland! Meine Liebe D Kann ich dir nicht geben D G A C C D D# D Deutschland! D Du C Ich G Wir Bb Ihr D Du (übermächtig, überflüssig) C Ich (Übermenschen, überdrüssig) G Wir (wer hoch steigt, der wird tief fallen) A Ihr (Deutschland, Deutschland über allen) D Deutschland! Mein Herz in Flammen C Will dich lieben und verdammen D# Deutschland! Dein Atem kalt D So jung, und doch so alt D Deutschland! Deine Liebe C Ist Fluch und Segen Bb D# Deutschland! Meine Liebe D Kann ich dir nicht geben D G A C C D D# D Deutschland! [Final] D G A C C D D# D
Composición: Till LindemannColaboración y revisión: joão ArcariHeitor

Utilizamos cookies e outras tecnologias semelhantes para melhorar e personalizar sua experiência de uso. Ao navegar nos produtos, você concorda com as condições descritas em nossa Política de Privacidade.