Alter Mann

Rammstein

Tono: G
(afinação d|a|d|g|b|e)

(main riff) (play 4 times)
        pm  pm     pm  pm     pm  pm     pm
#1t1##1t2#|-------------------------------------------------------|
|-------------------------------------------------------|
|-------------------------------------------------------|
|---------2---2-2----2---2-2----2---2-2----2-------2----|
|-0-0-0-2-2-2-2-2--2-2-2-2-2--2-2-2-2-2--2-2-0-0-1-2----|
|-0-0-0-2-2-2-2-2--2-2-2-2-2--2-2-2-2-2--2-2-0-0-1-2----|#/1t2##/1t1#

(verse without guitar)
(ain riff 2x)
(verse without guitar)
(main riff 1x)

(chorus riff - play 1 time)
  pm  pm     pm  pm      pm  pm      pm  pm        pm  pm      pm  pm
#2t1##2t2#|-----------------------------------------------------------------------|
|-----------------------------------------------------------------------|
|-----------------------------------------------------------------------|
|---7---7-7----7---7-7-----5---5-5-----4---4-4----9---9-9-----5---5-5---|
|-7-7-7-7-7--7-7-7-7-7---5-5-5-5-5---4-4-4-4-4----9-9-9-9-9---5-5-5-5-5-|
|-7-7-7-7-7--7-7-7-7-7---5-5-5-5-5---4-4-4-4-4----9-9-9-9-9---5-5-5-5-5-|
|#/2t2##/2t1#
#3t1#| pm  pm     pm  pm      pm  pm      pm  pm      pm  pm      pm  pm
#3t2#|----------------------------------------------------------------------|
|----------------------------------------------------------------------|
|----------------------------------------------------------------------|
|---4---4-4----5---4-4-----7---7-7-----7---7-7-----5---5-5-----4---4-4-|
|-4-4-4-4-4--5-5-4-4-4---7-7-7-7-7---7-7-7-7-7---5-5-5-5-5---4-4-4-4-4-|
|-4-4-4-4-4--5-5-4-4-4---7-7-7-7-7---7-7-7-7-7---5-5-5-5-5---4-4-4-4-4-|
|#/3t2##/3t1#
#4t1#| pm  pm     pm  pm    pm  pm      pm  pm      pm  pm      pm  pm
#4t2#|--------------------------------------------------------------------------|
|--------------------------------------------------------------------------|
|--------------------------------------------------------------------------|
|---9---9-9----5---5-----4---4-4-----5---4-4-----7---7-7-----7---7-7-7-8-7-|
|-9-9-9-9-9--5-5-5-5---4-4-4-4-4---5-5-4-4-4---7-7-7-7-7---7-7-7-7-7-7-8-7-|
|-9-9-9-9-9--5-5-5-5---4-4-4-4-4---5-5-4-4-4---7-7-7-7-7---7-7-7-7-7-7-8-7-|#/4t2##/4t1#

(main riff 2x)
(verse without guitar)
(main riff 1x)
(chorus riff 2x - the first time it gets interrupted at about 3/4)
Composición: Colaboración y revisión: André Ramos