Trapézio

Pitty

C
123
X32010
D
123
XX0232
Em
12
022000
F
234
133211
G
123
320003
G#
234
431114
Tono: G
G F Em C D


#1t1##1t2#E |--7-7-7-5-5-5-7-7-8-8-8-8-8-8-8-8--7-7-7-5-5-5-7-7-8-8-8-10-10-10|
B |--8-8-8-8-8-8-8-8-8-8-8-8-8-8-8-8--8-8-8-8-8-8-8-8-8-8-8-8--8--8-|
G |-----------------------------------------------------------------|
D |-----------------------------------------------------------------|
A |-----------------------------------------------------------------|
E |-----------------------------------------------------------------|#/1t2##/1t1#

#2t1##2t2#E |--5-5-5-3-3-3-3-3-3-3-3-5-5-3-3-|
B |--5-5-5-5-5-5-5-5-5-5-5-5-5-5-5-|  (2x)
G |--------------------------------|
D |--------------------------------|
A |--------------------------------|
E |--------------------------------|#/2t2##/2t1#

#3t1##3t2#E |------------------------|
B |--3h5-5h3-5/7-7-8-8-7/5-|  (2x)
G |------------------------|
D |------------------------|
A |------------------------|
E |------------------------|#/3t2##/3t1#

D C G# G

#4t1##4t2#E |--2-2-2-2-2-2-2-2-2-2-2-2-2-2-2-0-0-0-0-0-0-0-0-0-0-0-0-0-0-0-|
B |--3-3-3-3-3-3-3-3-3-3-3-3-3-3-3-1-1-1-1-1-1-1-1-1-1-1-1-1-1-1-|
G |--------------------------------------------------------------|
D |--------------------------------------------------------------|
A |--------------------------------------------------------------|
E |--------------------------------------------------------------|#/4t2##/4t1#

#5t1##5t2#E |----------------|
B |----------------|
G |--0h2-2h0-2/3---|  (2x)
D |----------------|
A |----------------|
E |----------------|#/5t2##/5t1#

#6t1##6t2#E |----3----3-----3---3-|
B |---3-3----3---3-3--3-|
G |--4---4------4-----4-|
D |---------------------|
A |---------------------|
E |---------------------|#/6t2##/6t1#

#7t1##7t2#E |----1----1-----1----1------3----3-----3-----3---|
B |---1-1----1---1-1----1----3-3----3---3-3---3----|
G |--2---2------2---2-------4---4------4---4-------|  (2x)
D |------------------------------------------------|
A |------------------------------------------------|
E |------------------------------------------------|#/7t2##/7t1#

     G                  F
Eu queria era dizer diferente
           Em
Aquilo que todo mundo sente
     C                  D
Mas não consegue expressar

        G                F
Meu trapézio balançando lento
                Em
Preso bem lá no firmamento
   C               D
E eu tentando me equilibrar

    D                   C
Eu sei, é uma visão estranha
                      G#
Mas o cara dos sonhos teve a manha
                                    G
De me mandar essa imagem antes de acordar

      D                  C
De manhã ainda meio zureta
           G#
Com rímel até a bochecha
                       G
Lutando pra tentar me lembrar

        G              F
Do que fiz à noite passada
            Em
Se foi tudo ou quase nada
  C                   D
Além das tequilas no bar

      G                    F
Geralmente não há nada de mal
                  Em
O problema é a ressaca moral
         C                D
Quando essa finda vem me visitar

D                      C
Ontem eu era leve e faceira
               G#
Hoje eu nem me lembro das besteiras
                           G
Que às vezes é melhor nem lembrar

    D               C
Só lembro com exatidão
          G#
O copo, o sal, o limão
                       G
E depois meu trapézio no ar

     F                 G
E depois meu trapézio no ar
     F                 G
E depois meu trapézio no ar
Composición: Colaboración y revisión: Glória GaiaPedro Dupim