Favorite

Liz Phair

Tono: G
#1t1#Verse:
#1t2#|----------------------------------------|
|----------------------------------------|
|------1-------------------------4-------|
|-----2---------7--------4------4--------|
|----2---------7--------4------2---------|
|-------------5--------2-----------------|#/1t2##/1t1#

#2t1#Pre-chorus:
#2t2#|----------------------------------------|
|----------------------------------------|
|------------------1-------4-------------|
|------4-----7----2-------4-------7------|
|-----4-----7----2-------2-------7-------|
|----2-----5--------------------5--------|#/2t2##/2t1#

#3t1#Chorus:
#3t2#|----------------------------------------|
|----------------------------------------|
|------1------4--------------------------|
|-----2------4-------7------4------------|
|----2------2-------7------4-------------|
|------------------5------2--------------|#/3t2##/3t1#
Composición: Colaboración y revisión: