Let Her Go

Passenger

Am
123
X02210
C
123
X32010
Em
12
022000
F
123
XX321X
F7M
1234
X33210
G
12
3X003X
G4
134
3X0013
Tono: G
Intro 2x: F  G  Am  G  F  G  Am

Introdução:

Parte 1


   F
E|---0-----------------0----------
B|-3---3-1-----1-------1-------1--
G|---------0h2-----2-------2------
D|-------------3-----3-------3----
A|--------------------------------
E|---------1-----1-------1--------


Parte 2


   G       Am          G
E|---0---------------0------------
B|-3---3-1-----1-------3----------
G|---------0h2-----2-------0------
D|-----0-------2-----2---0--------
A|---------0-----0----------------
E|-3-------------------3----------


Parte 3


   F
E|---0-------------------3p0------
B|-3---3-1-----1-------1----------
G|---------0h2-----2-----------0--
D|-----0-------3-----3-------3----
A|--------------------------------
E|-3-------1-----1-------1--------


Parte 4


   G       Am
E|-------0------------------------
B|-1h3-------1-------1---1--------
G|-----------2---2----------------
D|-----0-----2-----2-----2--------
A|---------0---0-------0----------
E|-3------------------------------


Parte 1 (com variação)


           F
E|---0-----------------0----------
B|-3---3-1-----1-------1-------1--
G|---------0h2-----2-------2------
D|-----0-------3-----3-------3----
A|--------------------------------
E|-3-------1-----1-------1--------


Refrão:

          G              F
Well, you only need the light
                   C
When it’s burning low
               G
Only miss the sun
                      Am
When it’s starts to snow
               F
Only know you love her
                  C  G
When you let her go

                       F
Only know you’ve been high
                     C
When you’re feeling low
               G
Only hate the road
                     Am
When you’re missin’ home
               F
Only know you love her
                     C  G
When you’ve let her go

And you let her go

Dedilhado Refrão:


   G
E|---0----------------------------
B|-3---3-1------------------------
G|--------------------------------
D|-----0--------------------------
A|--------------------------------
E|-3------------------------------



   F            C
E|--------------------------------
B|---1-------1----1-------1-------
G|-------2------------0-----------
D|---3-----3------2-----2---------
A|--------------3---3-------------
E|-1---1--------------------------



   G            Am
E|--------------------------------
B|---0-------0----1-------1-------
G|-------0------------2-----------
D|---0-----0------2-----2---------
A|--------------0---0-------------
E|-3---3--------------------------



   F             C
E|--------------------------------
B|---1-------1-----1-------1------
G|-------2-------------0----------
D|---3-----3-------2-----2--------
A|---------------3---3------------
E|-1---1--------------------------



   G
E|--------------------------------
B|---0-------0----0-------0-------
G|-------0------------0-----------
D|---0-----0------0-----0---------
A|--------------------------------
E|-3---3--------3---3-------------


Primeira Parte:

(Am  F7M  G  Em
 Am  F7M  G  G4  G)

  Am                            F7M
Staring at the bottom of your glass
       G                           
Hoping one day you'll make a dream 
 Em
last
                   Am
'Cuz dreams come slow
             F7M    G  G4  G
And they go so fast
Am F7M You see her when you close your eyes G Em Maybe one day you'll understand why Am Everything you touch F7M G G4 G Surely, it dies Refrão: F7M But, you only need the light C When it’s burning low G Only miss the sun Am When it’s starts to snow F7M Only know you love her C G G4 G When you let her go F7M Only know you’ve been high C When you’re feeling low G Only hate the road Am When you’re missin’ home F7M Only know you love her C G G4 G When you’ve let her go Segunda Parte: Am F7M Staring at the ceiling in the dark G Em Same ol’ empty feeling in your heart Am 'Cuz love comes slow F7M G G4 G And it goes so fast Am Well, you see her when you fall F7M asleep G But to never to touch and never to Em keep Am 'Cuz you loved her to much F7M G G4 G And you dive too deep Refrão: F7M Well, you only need the light C When it’s burning low G Only miss the sun Am When it’s starts to snow F7M Only know you love her C G G4 G When you let her go F7M Only know you’ve been high C When you’re feeling low G Only hate the road Am When you’re missin’ home F7M Only know you love her C G G4 G When you’ve let her go Terceira Parte: Am And you let her go F7M G G4 G Ooo.. ooo.. Am And you let her go F7M G G4 G Ooo.. ooo.. Well, you let her go (Am F7M G Em Am F7M G G4 G) Refrão: F7M 'Cuz you only need the light C When it’s burning low G Only miss the sun Am When it’s starts to snow F7M Only know you love her C G G4 G When you let her go F7M Only know you’ve been high C When you’re feeling low G Only hate the road Am When you’re missin’ home F7M Only know you love her C G G4 G When you’ve let her go Refrão Final: F7M 'Cuz you only need the light C When it’s burning low G Only miss the sun Am When it’s starts to snow F7M Only know you love her C G When you let her go Only know you’ve been high When you’re feeling low Only hate the road When you’re missin’ home Only know you love her When you’ve let her go And you let her go
Composición: Mike RosenbergColaboración y revisión: Leandro SandimnicoleMiguel CamargoAdson Silvay más 10
videoclase Let Her Go (aula violão completa)