Hate To See Your Heart Break

Paramore

Am
123
X02210
C
123
X32010
F
234
133211
G
123
320003
Tono: G
Tom: F (forma dos acordes no tom de C)  Capotraste na 5ª casa

C              Am
There is not a single word
        C
In the whole world
              Am
That could describe the hurt
               F
The dullest knife just sawing back and forth
            G
Ripping through the softest skin there ever was
        F
How were you to know?
        G
How were you to know?

  C                Am
And I, I hate to see your heart break
             F
I hate to see your eyes get darker as they close
  G
But I've been there before

  C                Am
And I, I hate to see your heart break
             F
I hate to see your eyes get darker as they close
  G
But I've been there before

C           Am
Love happens all the time
            C
To people who aren't kind
           Am
And heroes who are blind
           F
Expecting perfect scripted movie scenes
           G
Who wants an awkward silence mystery?
        F
How were you to know?
        G
How were you to know?

  C                Am
And I, I hate to see your heart break
             F
I hate to see your eyes get darker as they close
  G
But I've been there before

  C                Am
And I, I hate to see your heart break
             F
I hate to see your eyes get darker as they close
  G                        Am
But I've been there before


Am          C                  G     Am
For all the air that's in your lungs
Am          C              G
For all the joy that is to come

                 F
For all the things that you're alive to feel
              G
Just let the pain remind you hearts can heal
        F
How were you to know?
        G
How were you to know?

  C                Am
And I, I hate to see your heart break
             F
I hate to see your eyes get darker as they close
  G
But I've been there before
  C                Am
And I, I hate to see your heart break
             F
I hate to see your eyes get darker as they close
  G
But I've been there before


[Solo] C Am F G

 [3x]

#1t1##1t2#E|-------8----------------------8----------------------------12------------|
B|---8-10-10-10-10-8-10-8---8-10-10-10-10-8-10-8---------10-----10-10-10---|
G|-----------------------10----------------------10-10/12------------------|
D|-------------------------------------------------------------------------|
A|-------------------------------------------------------------------------|
E|-------------------------------------------------------------------------|#/1t2##/1t1#

#2t1##2t2#E|----------------------12---------------------------|
B|-----10------------10----10-10/13-13-13/11-11-11---|
G|--12----12-10-12-----------------------------------|
D|---------------------------------------------------|
A|---------------------------------------------------|
E|---------------------------------------------------|#/2t2##/2t1#

( C Am F G C )

#3t1##3t2#E|-------8----------------------8----------------------------12------------|
B|---8-10-10-10-10-8-10-8---8-10-10-10-10-8-10-8---------10-----10-10-10---|
G|-----------------------10----------------------10-10/12------------------|
D|-------------------------------------------------------------------------|
A|-------------------------------------------------------------------------|
E|-------------------------------------------------------------------------|#/3t2##/3t1#

#4t1##4t2#E|----------------------12-------------------------------|
B|-----10------------10----10-10/13-13-13/11-11-11--10---|
G|--12----12-10-12---------------------------------------|
D|-------------------------------------------------------|
A|-------------------------------------------------------|
E|-------------------------------------------------------|#/4t2##/4t1#
Composición: Hayley Williams / Taylor YorkColaboración y revisión: Douglas OKMAXO PEREJennifer VieiraSenhora Forfuny más 1