Ballad For The Lost Romantics

New Found Glory

Tono: G
Standard Tuning


Intro (x2)/Verse (x2): 

e |-------------------------------
B |-------------------------------
G |-4-4---------------------------
D |-4-4--4-4--2-2--6-6--4-4-------
A |-2-2--4-4--2-2--6-6--4-4-------
E |------2-2--0-0--4-4--2-2-------

e|-----------|  
B|-----------|  
G|-----------|  
D|--4--------|  
A|--4--------|  
E|--2--------|  

       (last time)


Prechorus (x4): 

e |-------------------------------
B |-------------------------------
G |-------------------------------
D |-2-2-2---6-6--4-4--------------
A |-2-2-2---6-6--4-4--------------
E |-0-0-0---4-4--2-2--------------


Verse 2 (x4): (same as intro/verse) Prechorus 2 (x4): (same as prechorus) Chorus (x4): e |------------------------------- B |------------------------------- G |-4-4-4------------------------- D |-4-4-4--6-6--4-4--2-2--4--6--4- A |-2-2-2--6-6--4-4--2-2--4--6--4- E |--------4-4--2-2--0-0--2--4--2- e|------------------| B|------------------| G|----4-4--4-4--4-4-| D|-2--4-4--4-4--4-4-| A|-2--2-2--2-2--2-2-| E|-0----------------| Bridge (x8): e |------------------------------- B |------------------------------- G |-4-4--------------------------- D |-4-4--6--4-4--6---------------- A |-2-2--6--4-4--6---------------- E |------4--2-2--4---------------- Prechorus 3 (x4): (same as prechorus) Chorus 2 (x4): (same as chorus) Bridge 2 (x4): (same as bridge)
Composición: Colaboración y revisión: Leandro Bitencourt

Utilizamos cookies para personalizar sua experiência. Ao acessar o site, você concorda com a nossa Política de Privacidade.