Cruel Angels Thesis

Neon Genesis Evangelion

Tono: G
Cruel Angel's Thesis (Opening Theme - TV Version)

Daniel Lee Hill
ICQ: 7831222

I've put a lot of time and effort into making this
tab so it'd be cool if you could foward it to some
of your friends who'd be interested in
learning
 this
song
#1t1##1t2#E -----1---1-1-1-6-4-3-1-3-|-3-6-8-----6-6-3-6-6-8-|
B -1-4---4-----------------|-------6-4-------------|
G -------------------------|-----------------------|
D -------------------------|-----------------------|
A -------------------------|-----------------------|
E -------------------------|-----------------------| x2#/1t2##/1t1#

#2t1##2t2#E -11-------11-11-13----------15-16-15-13----13-15-16-15----|
B ----11-11----------11-11-11-------------16-------------13-|
G ----------------------------------------------------------|
D ----------------------------------------------------------|
A ----------------------------------------------------------|
E ----------------------------------------------------------|#/2t2##/2t1#

#3t1##3t2#E ----------------------13-16-15-13----15-15-13-12-13-------------|
B -13-15-16-16-15-15-16-------------16----------------13-13-15-15-|
G ----------------------------------------------------------------|
D ----------------------------------------------------------------|
A ----------------------------------------------------------------|
E ----------------------------------------------------------------|#/3t2##/3t1#

#4t1##4t2#E -11-------11-11-13----------15-16-15-13----13-15-16-15----|
B ----11-11----------11-11-11-------------16-------------13-|
G ----------------------------------------------------------|
D ----------------------------------------------------------|
A ----------------------------------------------------------|
E ----------------------------------------------------------|#/4t2##/4t1#

#5t1##5t2#E ----------------------13-16-15-13----15-15-13-12-13-15-16-15-|
B -13-15-16-16-15-15-16-------------16-------------------------|
G -------------------------------------------------------------|
D -------------------------------------------------------------|
A -------------------------------------------------------------|
E -------------------------------------------------------------|#/5t2##/5t1#

#6t1##6t2#E -11-11-10-11-11-10-13-13-11-10-8-10-11-11-10-13-10-8-6-|
B -------------------------------------------------------|
G -------------------------------------------------------|
D -------------------------------------------------------|
A -------------------------------------------------------|
E -------------------------------------------------------|#/6t2##/6t1#

#7t1##7t2#E -11-11-10-11-11-10-13-13-11-10-11-13-15-16-15-13-11-13-15-|
B ----------------------------------------------------------|
G ----------------------------------------------------------|
D ----------------------------------------------------------|
A ----------------------------------------------------------|
E ----------------------------------------------------------|#/7t2##/7t1#

#8t1##8t2#E -------------13-13-13-18-16-15-13-15-|
B -13-16-18-16-------------------------|
G -------------------------------------|
D -------------------------------------|
A -------------------------------------|
E -------------------------------------|#/8t2##/8t1#

#9t1##9t2#E -15-18-20-------------------------|
B ----------18-16-15-15-13-18-16-16-|
G ----------------------------------|
D ----------------------------------|
A ----------------------------------|
E ----------------------------------|#/9t2##/9t1#

#10t1##10t2#E -------------13-13-13-18-16-15-13-15-|
B -13-16-18-16-------------------------|
G -------------------------------------|
D -------------------------------------|
A -------------------------------------|
E -------------------------------------|#/10t2##/10t1#

#11t1##11t2#E -15-18-20-------18-18-15-18-18-20-|
B ----------18-16-------------------|
G ----------------------------------|
D ----------------------------------|
A ----------------------------------|
E ----------------------------------|#/11t2##/11t1#

#12t1##12t2#E -------------13-13-13-18-16-15-13-15-|
B -13-16-18-16-------------------------|
G -------------------------------------|
D -------------------------------------|
A -------------------------------------|
E -------------------------------------|#/12t2##/12t1#

#13t1##13t2#E -15-18-20-------18-18-15-18-18-20-|
B ----------18-16-------------------|
G ----------------------------------|
D ----------------------------------|
A ----------------------------------|
E ----------------------------------|#/13t2##/13t1#
Composición: Colaboración y revisión: