Supermassive Black Hole

Muse

Tono: G
#1t1#Intro:
#1t2#E|----------------------   
B|----------------------    
G|----------------------  (3x)
D|------5-------5-------    
A|----------------------    
E|-0~-0--0--0-0--0------  #/1t2##/1t1#

#2t1##2t2#E|----------------------------------
B|----------------------------------
G|----------------------------------
D|------5-------5--7b-5h7h5/2-------
A|----------------------------------
E|-0~-0--0--0-0--0------------------#/2t2##/2t1#

#3t1#Verso:
#3t2#E|------------------------------------------------------------------
B|------------------------------------------------------------------
G|------------------------------------------------------------------
D|----5---------------5---------------5---------------5-------------
A|------------------------------------------------------------------
E|0-0---0-0-3-3-3-0-0---0-0-5-5-3-0-0---0-0-3-3-3-0-0---0-0-5-5-7---#/3t2##/3t1#

#4t1##4t2#E|------------------------------------------------------------------
B|------------------------------------------------------------------
G|------------------------------------------------------------------
D|----5---------------5---------------5---------------5-7b-5h7h2----
A|------------------------------------------------------------------
E|0-0---0-0-3-3-3-0-0---0-0-5-5-3-0-0---0-0-3-3-3-0-0--0------------#/4t2##/4t1#

#5t1#Refrão:
#5t2#E|--------------------------------------------------------------
B|--------------------------------------------------------------
G|--------------------------------------------------------------
D|----7-----7-7-6-----5-----7-7-8-----9---9-8-7-5---------------
A|x-x-x-x-x-x-x-x-x-x-x-x-x-x-x-x-x-x-x-x-x-x-x-x-x-x-x-x-x-x---
E|5-5-5-5-5-5-5-4-3-3-3-3-3-5-5-6-7-7-7-7-7-6-5-3-0-0-0-2-2-3~~~#/5t2##/5t1#
Composición: Colaboración y revisión: Julio CesarGustavo GoesPhillip NascimentoRenan MROy más 1