Longe Daqui (part: Luan Santana)

Munhoz e Mariano

A
123
X02220
Bm
234
X24432
C
123
X32010
Cm
234
X35543
D
123
XX0232
D7
123
XX0212
D7M
123
XX0222
Em
12
022000
F#m
34
244222
G
123
320003
Gm
34
355333
Tono: G
[Intro] D  Bm  G  A
 
#1t1#               D
#1t2#E|--3-2--2--0-2--0-2------------------|
B|-------3--3-3--3-3------------------|
G|-------2--2-2--2-2------------------|
D|-------0----------------------------|
A|------------------------------------|
E|------------------------------------|#/1t2##/1t1#

#2t1#                Bm
#2t2#E|--3-2--2--2-2--2-2------------------|
B|-------3--2-3--2-3------------------|
G|-------4--4-4--4-4------------------|
D|-------4--4-4--4-4------------------|
A|-------2--2-2--2-2------------------|
E|-------2--2-2--2-2------------------|#/2t2##/2t1#
#3t1#                G
#3t2#E|--3-2--3--3-3--3-3------------------|
B|-------3--0-3--0-3------------------|
G|-------0--0-0--0-0------------------|
D|-------0--0-0--0-0------------------|
A|-------3--3-3--3-3------------------|
E|-------2--2-2--2-2------------------|#/3t2##/3t1#
#4t1#                Gm
#4t2#E|--3-2--3-----3-----3------------------|
B|-------3--3--3--3--3------------------|
G|-------3--3--3--3--3------------------|
D|-------5--5--5--5--5------------------|
A|-------5-----5-----5------------------|
E|-------3-----3-----3------------------|#/4t2##/4t1#

 D
Tá com vergonha de mim, tá? 
                               D7M
Tá com medo do que pensam de nós? 
 D
Finge que não tem ninguém aqui 
                                 D7M   D7  Em  F#m
Fale o que você quiser, quero te ouvir! 

G                                 D
     Até quando você vai tentar me negar 
                   A
Se enganar, se esconder de si mesma 
D                                               Bm
    Se prefere eu posso inventar um lugar diferente 
                                                G
Onde não há ninguém pra falar mal da vida da gente 
                          
Eu te levo pra gente se amar 
                        Gm
Eu te levo pra gente se amar 
 G               D
Pra bem longe daqui 
            Bm
Agora se preferir 
                         G
Eu te levo pra gente se amar 
                         Gm
Eu te levo pra gente se amar 
 
Pra bem longe

( G  Em )

C                               G
Até quando você vai tentar me negar 
                   D
Se enganar, se esconder de si mesma 
G                                               Em
    Se prefere eu posso inventar um lugar diferente 
                                                C
Onde não há ninguém pra falar mal da vida da gente 
                          
Eu te levo pra gente se amar 
                        Cm
Eu te levo pra gente se amar 
               
Pra bem longe 
G                                               Em
    Se prefere eu posso inventar um lugar diferente 
                                                C
Onde não há ninguém pra falar mal da vida da gente 
                          
Eu te levo pra gente se amar 
                        Cm
Eu te levo pra gente se amar 
               G
Pra bem longe daqui

            Em
Agora se preferir 
                         C
Eu te levo pra gente se amar 
                         Cm
Eu te levo pra gente se amar 
 Cm
Pra bem longe daquii
Composición: Colaboración y revisión: João BorbaLucas EmerickMarcus HenriqueHenrique Ramosy más 6