A Bela E O Fera

Munhoz e Mariano

Bm
234
X24432
C9
34
X35533
D
123
XX0232
Em7
123
022030
G
123
320003
Tono: G
[Intro] G  Em7  C9  D

[Primeira Parte]

G
Ela é mistério, cheia de segredos
Em7
Ele é bagunçado, cheio de defeitos
 C9                                     G  D
Toda noite cai na farra, ele toca o terror

G
Ir pra faculdade não ta nem aí
Em7
Ele ta formado em se divertir
  C9                                      D
E ela só nos livros, cineminha, e computador

[Segunda Parte]

        C9        D        Em7
Quem diria que a Bela e a Fera
      Bm        C9
Formariam no final
           D
Um belo casal

[Refrão]

 G                    Em7
Hoje ela frequenta o bar da faculdade
   C9                  D
Balada sertaneja e os pubs da cidade
  G                   Em7
E ele lê romance, vê filmes de terror
   C9            D
A Bela e o Fera, isso que é amor  

 G                    Em7
Hoje ela frequenta o bar da faculdade
   C9                  D
Balada sertaneja e os pubs da cidade
  G                   Em7
E ele lê romance, vê filmes de terror
   C9            D
A Bela e o Fera, isso que é amor  

[Solo] G  Em7  C9  D

#1t1##1t2#E|---5/7-5-----------5/7\5------------------|
B|---------10\8--5----------10\8------------|
G|-7---------------7------------------------|
D|------------------------------------------|
A|------------------------------------------|
E|------------------------------------------|#/1t2##/1t1#

#2t1##2t2#E|---8---8\---7---7\---5---5\---3/---5\-----|
B|------------------------------------------|
G|-9---9\---7---7\---5---5\---4/---5\-------|
D|------------------------------------------|
A|------------------------------------------|
E|------------------------------------------|#/2t2##/2t1#

#3t1##3t2#E|---2/---3---5---3---2---------------------|
B|------------------------3h5---------------|
G|-2/---4---5---4---2-----------------------|
D|----------------------4--/5---------------|
A|------------------------------------------|
E|------------------------------------------|#/3t2##/3t1#

[Segunda Parte]

        C9        D        Em7
Quem diria que a Bela e a Fera
      Bm        C9
Formariam no final
           D
Um belo casal

[Refrão Final]

#4t1##4t2#E|---5/7-5----------------------------------|
B|---------10\8--5----8----8----------------|
G|-7---------------7--7h9--7----------------|
D|------------------------------------------|
A|------------------------------------------|
E|------------------------------------------|#/4t2##/4t1#

#5t1##5t2#E|---5/7-5-----------5/7-5------------------|
B|---------10\8--5----------8---------------|
G|-7---------------7------------------------|
D|------------------------------------------|
A|------------------------------------------|
E|------------------------------------------|#/5t2##/5t1#

 G                    Em7
Hoje ela frequenta o bar da faculdade
   C9                  D
Balada sertaneja e os pubs da cidade
  G                   Em7
E ele lê romance, vê filmes de terror
   C9            D
A Bela e o Fera, isso que é amor
 G                    Em7
Hoje ela frequenta o bar da faculdade
   C9                  D
Balada sertaneja e os pubs da cidade
  G                   Em7
E ele lê romance, vê filmes de terror

   C9            D            G  Em7
A Bela e o Fera, isso que é amor
   C9            D            G  Em7
A Bela e o Fera, isso que é amor
   C9            D            G
A Bela e o Fera, isso que é amor
Composición: MARIANO / MunhozColaboración y revisión: Gustavo CunhaGustavo Vazgiuliano spaolonziJuliana martinsy más 5
videoclase A Bela e o Fera (aula de violão completa)