Hunted By A Freak

Mogwai

Tono: G
Album: Happy Songs for Happy People
Transcribed by: Graham Gahs-Hill
Email: *

the parts to sound right,
add layers to some fairly
repetitive guitar parts.

There are two guitars playing through almost the entire song, so I've transcribed the 
recognizable parts
(there are points where a guitar is playing, but is almost completely lost in the mix). 
with all tablature,
listen to the album to get the timing right.

Feel free to e-mail me with comments, corrections, love letters, death threats, whatever.


#1t1##1t2#|-------------------------------4---3-----3-----3---3-----3-----3---3-----3-----0----0-----0-----0|
|-------------------------------------0-----0---------0-----0---------0-----0----------5-----5----|
|-------------------------------------------------------------------------------------------------|
|-------------------------------------------------------------------------------------------------|
|-----------------------------4---3-----3-----3---3-----3-----3-------------------/7-----7-----7--|
|-----------------------------------------------------------------3-----3-----3-------------------|
 .                          .#/1t2##/1t1#

#2t1##2t2#|---0-----0-----0---0-----0-----0---0-----0-----0---0-----0-----0----0-----0-----0-------0---0--|
|-----4-----4---------3-----3---------3-----3---------3-----3----------5-----5-----5---5-------5|
|-----------------------------------------------------------------------------------------------|
|-----------------------------------------------------------------------------------------------|
|-4-----4-----4---3-----3-----3---3-----3-----3-------------------/7-----7-----7-----7-----7----|
|-------------------------------------------------3-----3-----3---------------------------------|#/2t2##/2t1#
  *DRUMS ENTER

#3t1##3t2#|-----4-----4-----4---3-----3-----3---3-----3-----3---3-----3-----0----0-----0-----0|
|-------0-----0---------0-----0---------0-----0---------0-----0----------5-----5----|
|-----------------------------------------------------------------------------------|
|-----------------------------------------------------------------------------------|
|---4-----4-----4---3-----3-----3---3-----3-----3-------------------/7-----7-----7--|
|---------------------------------------------------3-----3-----3-------------------|#/3t2##/3t1#


#4t1##4t2#|---4-----4-----4---3-----3-----3---3-----3-----3---3-----3-----0----0-----0-----3-----3-----3-----|
|-----4-----4---------3-----3---------3-----3---------3-----3----------5-----5-----5-----5-----5---|
|--------------------------------------------------------------------------------------------------|
|--------------------------------------------------------------------------------------------------|
|-4-----4-----4---3-----3-----3---3-----3-----3-------------------/7-----7-----7-----7-----7-------|
|-------------------------------------------------3-----3-----3------------------------------------|#/4t2##/4t1#


#5t1##5t2#|-----------------------------------------------------------------|
|-10**-----12****-----10**-----12****-----10****-----15*----------|
|------------------------------------------------------------9**--|
|-----------------------------------------------------------------|
|-----------------------------------------------------------------|
|-----------------------------------------------------------------|#/5t2##/5t1#
 NOTE: You're going to need a delay pedal for this part. Tremelo pick. Listen to the 
for the exact rhythm-
these are just the notes.


#6t1##6t2#|---4-----4-----4---3-----3-----3---3-----3-----3---3-----3-----3----0-----0-----0-|
|-----0-----0---------0-----0---------0-----0---------0-----0----------5-----5-----|
|----------------------------------------------------------------------------------|
|----------------------------------------------------------------------------------|
|-4-----4-----4---3-----3-----3---3-----3-----3-------------------/7-----7-----7---|
|-------------------------------------------------3-----3-----3--------------------|#/6t2##/6t1#


#7t1##7t2#|---0-----0-----0---0-----0-----0---0-----0-----0---0-----0-----0----0-----0-----3-----3-----3---|
|-----4-----4---------3-----3---------3-----3---------3-----3----------5-----5-----5-----5-----5-|
|------------------------------------------------------------------------------------------------|
|------------------------------------------------------------------------------------------------|
|-4-----4-----4---3-----3-----3---3-----3-----3-------------------/7-----7-----7-----7-----7-----|
|-------------------------------------------------3-----3-----3----------------------------------|#/7t2##/7t1#


#8t1##8t2#|------------------------------------------------------------------|
|-10**-----12****-----10**-----12*****-----10****-----15*----------|
|-------------------------------------------------------------9**--|
|------------------------------------------------------------------|
|------------------------------------------------------------------|
|------------------------------------------------------------------|#/8t2##/8t1#


#9t1##9t2#|---0-----2-----3-----0-----2------0-----0-----0-----0-----0-------------------------------------0-----0-----0-----0-----0----|
|-----0-----0-----0-----0-----0------3-----3-----0-----3-----0---3-----3-----3--3-----3-----3------3-----3-----0-----3-----0--|
|------------------------------------------------------------------0-----0--------0-----0------------------------------------*|
|----------------------------------------------------------------------------------------------2-----2-----2-----2-----3-----*|
|-2-----2-----2-----2-----2------0-----0-----0-----0-----0-----3-----3-----3--------3-----3-----------------------------------|
|-----------------------------------------------------------------------------------------------------------------------------|#/9t2##/9t1#


#10t1##10t2#|---------------------------------------------------------|
|-10**-----12****-----10**-----12****-----10****-----15*--|
|---------------------------------------------------------|
|---------------------------------------------------------|
|---------------------------------------------------------|
|---------------------------------------------------------|#/10t2##/10t1#


#11t1##11t2#|----------------------------------------------------------------|
|-10**-----12****-----10**-----12****-----10****-----15*---------|
|------------------------------------------------------------9**-|
|----------------------------------------------------------------|
|----------------------------------------------------------------|
|----------------------------------------------------------------|#/11t2##/11t1#


#12t1##12t2#|---0-----2-----3-----0-----2------0-----0-----0-----0-----0-------------------------------------0-----0-----0-----0-----0----|
|-----0-----0-----0-----0-----0------3-----3-----0-----3-----0---3-----3-----3--3-----3-----3------3-----3-----0-----3-----0--|
|------------------------------------------------------------------0-----0--------0-----0------------------------------------*|
|----------------------------------------------------------------------------------------------2-----2-----2-----2-----3-----*|
|-2-----2-----2-----2-----2------0-----0-----0-----0-----0-----3-----3-----3--------3-----3-----------------------------------|
|-----------------------------------------------------------------------------------------------------------------------------|#/12t2##/12t1#

Enjoy!
Composición: Mário J. OliveiraColaboración y revisión: