Conto do Pescador

MC Menor da VG

Bm
234
X24432
C#m
234
X46654
F#m
34
244222
Tono: G
[Intro]


E|-----12-12-12-11----------------
B|--9---------------12-12---12-10-
G|--------------------------------
D|--------------------------------
A|--------------------------------
E|--------------------------------

E|--------------|      
B|10-12-10-9-9--|      
G|--------------| (2x) 
D|--------------|      
A|--------------|      
E|--------------|      



E|----------------------------15-
B|--9------9--10-9----12--9------
G|-----11----------11------------
D|-------------------------------
A|-------------------------------
E|-------------------------------

E|14-15--14-12--------|      
B|-------------15-14--|      
G|--------------------| (2x) 
D|--------------------|      
A|--------------------|      
E|--------------------|      


[Refrão]

               C#m               
Eu nunca vi ninguém dançando como 
      F#m
essa mina
             C#m                   
Eu nunca vi nenhuma dançar como 
  F#m
essa mina
                        C#m
De frente ela me deixa louco
F#m De costa ela vem me fascina C#m De frente ela me deixa louco F#m De costa ela me fascina Tava eu e o Jorginho apavorando na C#m festa F#m Quando apareceu a gostosa C#m E se é gostosa me interessa F#m De repente percebi, já estava C#m encantado F#m Com a gata hipnotizando e o baile C#m hipnotizado F#m Bm Eu falei que tava bom, mas ainda C#m vai melhorar F#m Bm É fato que eu quero ela, esse fato C#m eu vou consumar F#m Bm C#m 10 Minuto de ideia, ela já abraçou F#m Bm E foi aí que a sereia caiu no C#m conto do pescador
Composición: Mc Menor da VgColaboración y revisión: Felipe CasselAna Ávila