Sua Amiga Eu Vou Pegar

MC Lan

Tono: G
É só repetir o riff:

#1t1##1t2#E|-----------------------------------------------------------------|
B|-----------------------------------------------------------------|
G|-----------------------------------------------------------------|
D|-----------------------------------------------------------------|
A|--------6-8-----8-6------------------9-8-----8-6-8-9-8-6---------|
E|--6-8-9-------------9-8-6------6-8-9---------------------9-8-(6)-|#/1t2##/1t1#

Uma oitava acima:

#2t1##2t2#E|-------------------------------------------------------------------------------|
B|-------------------------------------------------------------------------------|
G|----------8-10-----10-8---------------------11-10----10-8-10-11-10-8-----------|
D|--8-10-11---------------11-10-8-----8-10-11--------------------------11-10-(8)-|
A|-------------------------------------------------------------------------------|
E|-------------------------------------------------------------------------------|#/2t2##/2t1#
Composición: Colaboración y revisión: Artur Souza