Arebunda (part. MC Barone)

MC Lan

Am
123
X02210
E/G#
1234
4X245X
Tono: G
[Intro] Am  E/G#

#1t1##1t2#E|-7h8-7----------------7h8-7------------------------|
B|--------10-9--9-9-10---------10-9--9-10-10---------|
G|---------------------------------------------------|
D|---------------------------------------------------|
A|---------------------------------------------------|
E|---------------------------------------------------|#/1t2##/1t1#

#2t1##2t2#E|-7h8-7----------------7h8-7--------12p10--8\7------|
B|--------10-9--9-9-10---------10-9--------------10--|
G|---------------------------------------------------|
D|---------------------------------------------------|
A|---------------------------------------------------|
E|---------------------------------------------------|#/2t2##/2t1#

#3t1##3t2#E|-7h8-7----------------7h8-7------------------------|
B|--------10-9--9-9-10---------10-9--9-10-10---------|
G|---------------------------------------------------|
D|---------------------------------------------------|
A|---------------------------------------------------|
E|---------------------------------------------------|#/3t2##/3t1#

#4t1##4t2#E|-7h8-7--------------7h8-7-----12p10--12p10--12p10--|
B|-------10-9--9-9-10------10-9----------------------|
G|---------------------------------------------------|
D|---------------------------------------------------|
A|---------------------------------------------------|
E|---------------------------------------------------|#/4t2##/4t1#

#5t1##5t2#E|-7h8-7--------------7h8-7-----12p10--12p10--12p10--|
B|-------10-9--9-9-10------10-9----------------------|
G|---------------------------------------------------|
D|---------------------------------------------------|
A|---------------------------------------------------|
E|---------------------------------------------------|#/5t2##/5t1#

#6t1##6t2#E|-7h8-7----------------7h8-7--------12p10--8\7------|
B|--------10-9--9-9-10---------10-9--------------10--|
G|---------------------------------------------------|
D|---------------------------------------------------|
A|---------------------------------------------------|
E|---------------------------------------------------|#/6t2##/6t1#

 Am        E/G#
Mil e uma noites
                      Am
Escutando aquela flautinha
               E/G#
É o arebum bundão
           Am
Arebum bundinha
               E/G#
É o arebum bundão
           Am
Arebum bundinha
                            E/G#
É o líder dos quarenta "ladrão"
                  Am
Sarrando nessa novinha
Dare areraba
      E/G#
E a flauta que manda
   Am                 E/G#
Comanda essa bunda maluca

 Am
Dare areraba
      E/G#
E a flauta que manda
   Am                 E/G#
Comanda essa bunda maluca

Am
Arebum bumbum
Bumbum
E/G#
Arebum bumbum
Bumbum
Am
Arebum bumbum
Bumbum
Bumbum bumbum
    E/G#
Bumbum

Am
Arebum bumbum
Bumbum
E/G#
Arebum bumbum
Bumbum
Am
Arebum bumbum
Bumbum
Bumbum bumbum
    E/G#
Bumbum

Am      E/G#
A lá Vavá
        Am
A li Babão
Tu vai sentar
           E/G#
Tu vai quicar
Tu vai sarrar
                   Am
Pros quarenta "ladrão"

        E/G#
A lá Vavá
        Am
A li Babão
Tu vai sentar
           E/G#
Tu vai quicar
Tu vai sarrar
                   Am
Pros quarenta "ladrão"

                                 E/G#
Tá com o líder dos quarenta "ladrão"
                          Am
Alibaba vai sarrar nas novinhas
           E/G#
Arebum bundão
           Am
Arebum bundinha

                                 E/G#
Tá com o líder dos quarenta "ladrão"
                          Am
Alibaba vai sarrar nas novinhas
           E/G#
Arebum bundão
           Am
Arebum bundinha

              E/G#
Vai com o bumbum
            Am
Bumbum, bumbum
              E/G#
Vai com o bumbum
Bumbum, bumbum

( Am  E/G#  Am  E/G# )
( Am  E/G#  Am  E/G# )

 Am        E/G#
Mil e uma noites
                      Am
Escutando aquela flautinha
               E/G#
É o arebum bundão
           Am
Arebum bundinha
               E/G#
É o arebum bundão
           Am
Arebum bundinha
                            E/G#
É o líder dos quarenta "ladrão"
                  Am
Sarrando nessa novinha
Dare areraba
      E/G#
E a flauta que manda
   Am                 E/G#
Comanda essa bunda maluca

 Am
Dare areraba
      E/G#
E a flauta que manda
   Am                 E/G#
Comanda essa bunda maluca

Am
Arebum bumbum
Bumbum
E/G#
Arebum bumbum
Bumbum
Am
Arebum bumbum
Bumbum
Bumbum bumbum
    E/G#
Bumbum

Am
Arebum bumbum
Bumbum
E/G#
Arebum bumbum
Bumbum
Am
Arebum bumbum
Bumbum
Bumbum bumbum
    E/G#
Bumbum

Am      E/G#
A lá Vavá
        Am
A li Babão
Tu vai sentar
           E/G#
Tu vai quicar
Tu vai sarrar
                   Am
Pros quarenta "ladrão"

        E/G#
A lá Vavá
        Am
A li Babão
Tu vai sentar
           E/G#
Tu vai quicar
Tu vai sarrar
                   Am
Pros quarenta "ladrão"

                                 E/G#
Tá com o líder dos quarenta "ladrão"
                          Am
Alibaba vai sarrar nas novinhas
           E/G#
Arebum bundão
           Am
Arebum bundinha

                                 E/G#
Tá com o líder dos quarenta "ladrão"
                          Am
Alibaba vai sarrar nas novinhas
           E/G#
Arebum bundão
           Am
Arebum bundinha

              E/G#
Vai com o bumbum
            Am
Bumbum, bumbum
              E/G#
Vai com o bumbum
Bumbum, bumbum

[Final] Am  E/G#  Am  E/G#
Composición: Colaboración y revisión: Thiago Almeida