O Bebê (part. Kevinho)

MC Kekel

C#m7
34
X46454
D
123
XX0232
E
123
022100
F#m7
1234
2X222X
Tono: G
[Intro] D  E  C#m7  F#m7

[Primeira Parte]

  D                     E
Alô, porque você não me atendeu?
                C#m7
Já tava mó preocupadão
                 F#m7
O seu pivete quase morre do coração
  D                    E
Amor, já fiz o corre pra te ver
                C#m7
Juntei a grana da passagem
                       F#m7
Contando as horas pra gente matar a saudade

[Refrão]

D
O bebê, gosto mais de você
     E
Do que de mim, do que de mim
C#m7
O bebê, gosto mais de você
        F#m7
Do que de mim, do que de mim

[Segunda Parte]

D
Antes de você eu era do mundão
  E
Gratidão, minha princesa
 C#m7
Mudou minha cabeça, só me fez crescer
 F#m7
Bota fé no que eu vou dizer

[Refrão]

D
O bebê, gosto mais de você
     E
Do que de mim, do que de mim
C#m7
O bebê, gosto mais de você
     F#m7
Do que de mim, do que de mim

D
O bebê, gosto mais de você
     E
Do que de mim, do que de mim
C#m7
O bebê, gosto mais de você
     F#m7
Do que de mim, do que de mim

[Solo]

#1t1##1t2#E|-12--------------12-----------------------|
B|----10-10--10-10----10-10--10-12----------|
G|------------------------------------------|
D|------------------------------------------|
A|------------------------------------------|
E|------------------------------------------|#/1t2##/1t1#

#2t1##2t2#E|------------------------------------------|
B|-14-12-12--10-12--14-12-12----------------|
G|------------------------------------------|
D|------------------------------------------|
A|------------------------------------------|
E|------------------------------------------|#/2t2##/2t1#

#3t1##3t2#E|-12-----------12--------------------------|
B|----9-9--9-9------9-9--9-10---------------|
G|------------------------------------------|
D|------------------------------------------|
A|------------------------------------------|
E|------------------------------------------|#/3t2##/3t1#

#4t1##4t2#E|------------------------------------------|
B|-12-10-10--9-10--12-10-10-----------------|
G|------------------------------------------|
D|------------------------------------------|
A|------------------------------------------|
E|------------------------------------------|#/4t2##/4t1#

[Primeira Parte]

  D                     E
Alô, porque você não me atendeu?
                C#m7
Já tava mó preocupadão
                 F#m7
O seu pivete quase morre do coração
  D                    E
Amor, já fiz o corre pra te ver
                C#m7
Juntei a grana da passagem
                       F#m7
Contando as horas pra gente matar a saudade

[Refrão]

D
O bebê, gosto mais de você
     E
Do que de mim, do que de mim
C#m7
O bebê, gosto mais de você
        F#m7
Do que de mim, do que de mim

[Segunda Parte]

D
Antes de você eu era do mundão
  E
Gratidão, minha princesa
 C#m7
Mudou minha cabeça, só me fez crescer
 F#m7
Bota fé no que eu vou dizer

[Refrão]

D
O bebê, gosto mais de você
     E
Do que de mim, do que de mim
C#m7
O bebê, gosto mais de você
     F#m7
Do que de mim, do que de mim

[Final] D  E  C#m7  F#m7  D

#5t1##5t2#E|-12--------------12-----------------------|
B|----10-10--10-10----10-10--10-12----------|
G|------------------------------------------|
D|------------------------------------------|
A|------------------------------------------|
E|------------------------------------------|#/5t2##/5t1#

#6t1##6t2#E|------------------------------------------|
B|-14-12-12--10-12--14-12-12----------------|
G|------------------------------------------|
D|------------------------------------------|
A|------------------------------------------|
E|------------------------------------------|#/6t2##/6t1#

#7t1##7t2#E|-12-----------12--------------------------|
B|----9-9--9-9------9-9--9-10---------------|
G|------------------------------------------|
D|------------------------------------------|
A|------------------------------------------|
E|------------------------------------------|#/7t2##/7t1#

#8t1##8t2#E|------------------------------------------|
B|-12-10-10--9-10--12-10-10-----------------|
G|------------------------------------------|
D|------------------------------------------|
A|------------------------------------------|
E|------------------------------------------|#/8t2##/8t1#
Composición: Colaboración y revisión: Thiago Almeida