A5
12
X022XX
D
123
XX0232
D5
134
X577XX
E5
12
022XXX
G5
134
355XXX
Tono: G
(intro)


(riff 1 - 2x)

E|------------------------------- 
B|------------------------------- 
G|2-x-x-------------------------- 
D|2-x-x-------------------------- 
A|0-x-x-3-3-3-3-3-3-3--------3-0- 
E|--------------------2-2-0-3---3 



(riff 2)

E|--------------------- 
B|5-5-5-5-5-5---------- 
G|-----------4--------- 
D|------------4-4-4-2-5 
A|--------------------- 
E|--------------------- 


(riff 1)

(verse) E5 E5 G E5 G E5 G E5 A5

(riff 3) E|----------------- B|----0-------0---- G|-0-0-0-0-0-0-0-0- D|4-4---4-4-4---4-- A|----------------- E|----------------- (chorus) E5 G5 And now you crossed that line D A5 You can't come back, tell me how does it feel now G5 D5 Is too late too much to forget about A5 Can't stop now, how does it feel now G5 D A5 I'm only asking because i wanna know E5 G5 D How you wanna feel!
Composición: Kyle Cook / Paul DoucetteColaboración y revisión: andre felipe

Utilizamos cookies para personalizar sua experiência. Ao acessar o site, você concorda com a nossa Política de Privacidade.