The Motherload

Mastodon

Tono: G
Afinação: C G C F A D

INTRO, VERSO
[gtr1+2]
#1t1##1t2#D|--------------------------------------------------------|
A|--------------------------------------------------------|
F|--------------------------------------------------------|
C|---------------------------------------------------14---|
G|-----------12--------------------------12----12-15------|
C|-0---12h15-----15-12-10-12---0---12h15----15------------|#/1t2##/1t1#

#2t1##2t2#D|-------------------------------------------0---|
A|-----------------------------------------------|
F|----------------------------------------7------|
C|-----------------------------------------------|
G|-----------12-----------------------8----------|
C|-0---12h15-----15-12-10-12-7---8-10------------|#/2t2##/2t1#

#3t1##3t2#D|--------------------------------------------------------|
A|--------------------------------------------------------|
F|--------------------------------------------------------|
C|---------------------------------------------------14---|
G|-----------12--------------------------12----12-15------|
C|-0---12h15-----15-12-10-12---0---12h15----15------------|#/3t2##/3t1#
#4t1#                              END1
#4t2#D|---------------------------|--------------0------|
A|---------------------------|---------------------|
F|---------------------------|-----------------7---|
C|---------------------------|---------------------|
G|-----------12--------------|----------8----------|
C|-0---12h15-----15-12-10-12-|-7---8-10------------|#/4t2##/4t1#

#5t1#FINAL2
#5t2#D|--------------------|
A|--------------------|
F|--------------------|
C|-7---7-7-10---5-10--|
G|-7---7-7-10---5-10--|
C|-7---7-7-10---5-10--|#/5t2##/5t1#

REFRÃO
[gtr1+2]
#6t1##6t2#D|---------------0-------------------0------------------------------------|
A|--------------10------------------10------------------------------------|
F|--------------10------------------10----10--1010--1010--12--1212-1212---|
C|--0--10-12-0---------0---10-12-0---------8---8-8---8-8--10--1010-1010---|
G|--0--10-12-0---------0---10-12-0---------8---8-8---8-8--10--1010-1010---|
C|--0--10-12-0---------0---10-12-0---------8---8-8---8-8--10--1010-1010---|#/6t2##/6t1#

#7t1##7t2#D|---------------0------------------0-------------------------------------|
A|--------------10-----------------10-------------------------------------|
F|--------------10-----------------10-----7---7-7---7-7---5---5-5--1212---|
C|--0--10-12-0---------0--10-12-0---------5---5-5---5-5---3---3-3--1010---|
G|--0--10-12-0---------0--10-12-0---------5---5-5---5-5---3---3-3--1010---|
C|--0--10-12-0---------0--10-12-0---------5---5-5---5-5---3---3-3--1010---|#/7t2##/7t1#


PONTE
[gtr1+2]
#8t1##8t2#D|-------------------------------------|
A|-11--1010--1010---8---6-6-6---8-13---|
F|-10---9-9---9-9---7---5-5-5---7-12---|
C|--8---7-7---7-7---5---3-0-3---5-10---|
G|--8---7-7---7-7---5---3-0-3---5-10---|
C|--8---7-7---7-7---5---3-0-3---5-10---|#/8t2##/8t1#

#9t1#FINAL (2nda ponte)
#9t2#D|-------------------------------------|
A|-11--1010--1010---6---6-613---1313---|
F|-10---9-9---9-9---5---5-512---1212---|
C|--8---7-7---7-7---3---3-310---1010---|
G|--8---7-7---7-7---3---3-310---1010---|
C|--8---7-7---7-7---3---3-310---1010---|#/9t2##/9t1#

INTERLÚDIO
[gtr1]
#10t1##10t2#D|--------------------------------------------------------------------|
A|--------8-----7-----------8-----7--------13----12------------10-----|
F|----------9-----9-----------9-----9--------14----14------12----12---| x 2
C|------9---------------9----------------14--------------12--------12-|
G|--7---------7-----7-----------7----12--------12----10------10-------|
C|--------------------------------------------------------------------|#/10t2##/10t1#

#11t1##11t2#D|--------------------------------------------0---------------------|
A|------------0---------------0-----------6-----6---------5-----3---|
F|--------5-----5---------5-----5-----------7-----7-----5-----4-----|
C|------7---7-----7-----7---5-----7-----7---------------------------|
G|--0---------------8---------------5---------------3-------2-------|
C|------------------------------------------------------------------|#/11t2##/11t1#

#12t1##12t2#D|----------------------------0---------------0-------------0-------|
A|------------0-----------6-----6---------5-----5-------3-----3-----|
F|--------5-----5-----------7-----7-----5---------5---4---------4---|
C|------7---7-----7-----7-------------------------------------------|
G|--0---------------5---------------3-------3-------2-----2---------|
C|------------------------------------------------------------------|#/12t2##/12t1#


#13t1##13t2#D|------------0---------------0-------------0---------------0-------|
A|--------6-----6---------6-----6---------0---0-----------0---0-----|
F|------7---------7-----7---------7-----6-------0-------6-------0---| x 4
C|------------------------------------7-----------7---7-----------7-|
G|------------------------------------------------------------------|
C|--8-------8-------5-------5-------7---------------7---------------|#/13t2##/13t1#

PRE-SOLO
[gtr1] Durante solo tbm.
#14t1##14t2#D|------------------------------------------------------------------|
A|------------------------------------------------------------------|
F|-10--1010--1010---7---7-7---7-7---9---9-9---9-9---9---9-9---9-9---| x 6
C|--8---8-8---8-8---5---5-5---5-5---7---7-7---7-7---7---7-7---7-7---|
G|--8---8-8---8-8---5---5-5---5-5---7---7-7---7-7---7---7-7---7-7---|
C|--8---8-8---8-8---5---5-5---5-5---7---7-7---7-7---7---7-7---7-7---|#/14t2##/14t1#

#15t1#[gtr2]
#15t2#D|--8-8-8-8-8-6-6-6-5-5-5-5-5---------------------------------------|
A|----------------------------8-8-8-5-5-5-5-5-5-5-5-5-5-5-5-5-5-5-5-|
F|------------------------------------------------------------------| x 3
C|------------------------------------------------------------------|
G|------------------------------------------------------------------|
C|------------------------------------------------------------------|#/15t2##/15t1#

#16t1#[gtr3]
#16t2#D|------------------------------------------------------------------|
A|------------------------------------------------------------------|
F|-1010101010101010-9-9-9-9-9-9-9-9-6-6-6-6-6-6-6-6-7-7-7-7-7-7-7-7-| x 2
C|--x-x-x-x-x-x-x-x-x-x-x-x-x-x-x-x-x-x-x-x-x-x-x-x-x-x-x-x-x-x-x-x-|
G|--8-8-8-8-8-8-8-8-7-7-7-7-7-7-7-7-4-4-4-4-4-4-4-4-5-5-5-5-5-5-5-5-|
C|------------------------------------------------------------------|#/16t2##/16t1#

#17t1##17t2#D|------------------------------------------------------------------|
A|------------------------------------------------------------------|
F|--9b10101010101010101010101010101010101010br9-9-9-9-9-9-9-9-9-9-9-|
C|--x--x-x-x-x-x-x-x-x-x-x-x-x-x-x-x-x-x-x-x--x-x-x-x-x-x-x-x-x-x-x-|
G|--7b-8-8-8-8-8-8-8-8-8-8-8-8-8-8-8-8-8-8-8br7-7-7-7-7-7-7-7-7-7-7-|
C|------------------------------------------------------------------|#/17t2##/17t1#


ESTRUTURA DA MÚSICA

INTRO, FINAL1
VERSO 2X, FINAL2
REFRÃO 2X
PONTE 4X
INTRO/VERSO COM FINAL2
VERSO 2X, (2nda vez com FINAL2)
REFRÃO 2X
PONTE 3X + FINAL
INTERLÚDIO [gtr2] toca algumas notas altas e longas
PRE-SOLO/SOLO
REFRÃO 2X
PONTE 4X


************************************

| /   slide up
| \   slide down
| h   hammer-on
| p   pull-off
| ~   vibrato
| +   harmonic
| x   Mute note
| b   Bend
| pb  Pre-bend
| br  Bend release
| pbr Pre-bend release
| brb Bend release bend

************************************
Composición: Colaboración y revisión: Rodrigo