A
123
X02220
Asus
123
X02220
C9
34
X35533
F
234
133211
G
123
320003
Tono: G
[Intro]

#1t1#    Asus  A       C9      G       F      G
#1t2#E|-0-----0-------3-------3-------0-------0--|
B|-3-----3-------3-------3-------0-------0--|
G|-2-----3-------5-------4-------2-------4--|
D|-------3-------5-------5-------3-------5--|
A|-0-----0-------3-------5-------3-------5--|
E|-------0-------3-------3-------0-------0--|#/1t2##/1t1#

#2t1##2t2#E|------------0------------------0-----|
B|----------------3-------3------------|
G|--------2-----------2-------2--------|
D|-------------------------------------|
A|----0--------------------------------|
E|-------------------------------------|#/2t2##/2t1#

#3t1##3t2#E|------------0------------------------|
B|----------------3-------3------------|
G|--------2-----------2-------2---2----|
D|-------------------------------------|
A|----0--------------------------------|
E|-------------------------------------|#/3t2##/3t1#

A                     C9
(Love) Love is a verb love is a doing word
G                A
Fearless on my breath
A                C9
Gentle impulsion shakes me makes me lighter
G                A
Fearless on my breath

F
Teardrop on the fire
G               A
Fearless on my breath

A                      C9
Night, night of matter, black flowers blossom
G                A
Fearless on my breath
F
Black flowers blossom
G               A
Fearless on my breath

F
Teardrop on the fire
G               A
Fearless on my breath

A               cadd9
Water is my eye most faithful mirror
G                A
Fearless on my breath
A                    C9
Teardrop on the fire of a confession
G                A
Fearless on my breath
F
Most faithful mirror
G               A
Fearless on my breath

F
Teardrop on the fire
G                A
Fearless on my breath

( A  F  G )

( F  G  A )

F                G
It's tumbling down (as in love falling apart)
G                A
It's tumbling down (as in love falling apart)
Composición: Elizabeth Fraser / Grantley Marshall / Mushroom / Robert 3D del NajaColaboración y revisión: NarixxHenrique Garcia