Tono: G
Intro 2x


E|------------------------------|-
B|-------------4----------------|-
G|-------3--5-----3--3----------|-
D|-6--6-----------------6--5--3-|-
A|------------------------------|-
D|------------------------------|-

E|--------------|-------------------
B|--------------|-------------------
G|--------------|-------------------
D|5--5--6--6--3-|-5-5-5-5--6--6--3--
A|--------------|-------------------
D|--------------|-------------------




Pre chorus
2x

E|-----------------11-|---------
B|---------11--13-----|-11--11--
G|-13--13-------------|---------
D|--------------------|---------
A|--------------------|---------
D|--------------------|---------

E|------------|---------------------| 
B|------------|---------------------| 
G|13--12--10--|--12--12--13--13-10--| 
D|------------|---------------------| 
A|------------|---------------------| 
D|------------|---------------------| 




E|--------------------------| 
B|--------------------------| 
G|-12-12-12-12--13--13--10--| 
D|--------------------------| 
A|--------------------------| 
D|--------------------------| 


Repetir 6x


E|-------------------------l----
B|-------------------------|----
G|-------------------------|----
D|-------------------------|----
A|--3--3--3----3--4--3--1--|----
D|--3--3--3----3--4--3--1--|----
--                              

E|----| 
B|----| 
G|----| 
D|3/--| 
A|3/--| 
D|----| 
      


E|-------------------------------- B|-------------------------------- G|--5-5-5-5--3--3--3-------------- D|--------------------6--6--5--5-- A|-------------------------------- D|-------------------------------- E||--------------------------------- B||--------------------------------- G||--5-5-5-5--3--3--3--6--5--------- D||----------------------------3---- A||--------------------------------- D||--------------------------------- E|-------------------------------- B|-------------------------------- G|--5-5-5-5--3--3--3-------------- D|--------------------6--6--5--5-- A|-------------------------------- D|-------------------------------- E||--------------------| B||--------------------| G||--5-5-5-5--3--3--3--| D||--------------------| A||--------------------| D||--------------------| E|-------------------------------- B|-------------------------------- G|--5-5-5-5--3--3--3-------------- D|--------------------6--6--5--5-- A|-------------------------------- D|-------------------------------- E||--------------------------------- B||--------------------------------- G||--5-5-5-5--3--3--3--6--5--------- D||----------------------------3---- A||--------------------------------- D||--------------------------------- E|-------------------------------- B|-------------------------------- G|--5-5-5-5--3--3--3-------------- D|--------------------6--6--5--5-- A|-------------------------------- D|-------------------------------- E||------------------11---| B||----------11--13-------| G||--13--13---------------| D||-----------------------| A||-----------------------| D||-----------------------| Pre chorus 2x E|-----------------11-|--------- B|---------11--13-----|-11--11-- G|-13--13-------------|--------- D|--------------------|--------- A|--------------------|--------- D|--------------------|--------- E|------------|---------------------| B|------------|---------------------| G|13--12--10--|--12--12--13--13-10--| D|------------|---------------------| A|------------|---------------------| D|------------|---------------------| E|--------------------------| B|--------------------------| G|-12-12-12-12--13--13--10--| D|--------------------------| A|--------------------------| D|--------------------------| Repetir 6x E|-------------------------|---- B|-------------------------|---- G|-------------------------|---- D|-------------------------|---- A|--3--3--3----3--4--3--1--|---- D|--3--3--3----3--4--3--1--|---- -- E|----| B|----| G|----| D|3/--| A|3/--| D|----| E|-------------------------------- B|-------------------------------- G|--5-5-5-5--3--3--3-------------- D|--------------------6--6--5--5-- A|-------------------------------- D|-------------------------------- E||--------------------------------- B||--------------------------------- G||--5-5-5-5--3--3--3--6--5--------- D||----------------------------3---- A||--------------------------------- D||--------------------------------- E|-------------------------------- B|-------------------------------- G|--5-5-5-5--3--3--3-------------- D|--------------------6--6--5--5-- A|-------------------------------- D|-------------------------------- E||--------------------| B||--------------------| G||--5-5-5-5--3--3--3--| D||--------------------| A||--------------------| D||--------------------| E|-------------------------------- B|-------------------------------- G|--5-5-5-5--3--3--3-------------- D|--------------------6--6--5--5-- A|-------------------------------- D|-------------------------------- E||--------------------------------- B||--------------------------------- G||--5-5-5-5--3--3--3--6--5--------- D||----------------------------3---- A||--------------------------------- D||--------------------------------- E|-------------------------------- B|-------------------------------- G|--5-5-5-5--3--3--3-------------- D|--------------------6--6--5--5-- A|-------------------------------- D|-------------------------------- E||------------------11---| B||----------11--13-------| G||--13--13---------------| D||-----------------------| A||-----------------------| D||-----------------------|
Composición: Martin GarrixColaboración y revisión: Alex LuisIris BMMatheus Mari

Utilizamos cookies e outras tecnologias semelhantes para melhorar e personalizar sua experiência de uso. Ao navegar nos produtos, você concorda com as condições descritas em nossa Política de Privacidade.