A
123
X02220
Bm
234
X24432
D
123
XX0232
G
123
320003
Tono: G
[Riff]

#1t1##1t2#E|--------------------------------------------|
B|--------------------------------------------|
G|--------------------------------------------|
D|-------------4-4-4------0-0-0-0-------------|
A|--5-5-5---0-0-0-0-0--4-2-2-2-2---0-0-0------|
E|-3-3-3-3------------------------2-2-2---0-2-|#/1t2##/1t1#

G         A
I'm so alone
Bm                  D
Nothing feels like home
G         A
I'm so alone
Bm               D
Trying to find my way
Back home to you

#2t1##2t2#E|-2-2-2-2-2-2-2-2-2-2--3-|2-2-2-2-2-2-2-2-2-2--3--|2-2-2-2-2-2-2-2-2-2--3--|-2-3-2---4-2------------|
B|---------------------3--|---------------------3--|---------------------3--|-------3----3-----------|
G|------------------------|------------------------|------------------------|------------------------|
D|------------------------|------------------------|------------------------|------------------------|
A|------------------------|------------------------|------------------------|------------------------|
E|------------------------|------------------------|------------------------|------------------------|#/2t2##/2t1#
Composición: MarshmelloColaboración y revisión: Bruno SilvaHaryel GonçalvesRick Freitas