She Will Be Loved

Maroon 5

A
123
X02220
A5
12
X022XX
Bm
234
X24432
D5(9)
134
X579XX
G
123
320003
Tono: G
[Intro] Bm  A  Bm  A

#1t1#    Bm        A
#1t2#E|-----------------------------------------|
B|---3-3-3-3------2-x-2-----2--------------|
G|---4-4-4-4------2-x-2-2------------------|
D|---4-4-4-4----2---x-2---2----------------|
A|-2----------0-----x-0--------------------|
E|-----------------------------------------|#/1t2##/1t1#

[Primeira Parte]

#2t1#    Bm        A
#2t2#E|-----------------------------------------|
B|---3-3-3-3------2-x-2-----2--------------|
G|---4-4-4-4------2-x-2-2------------------|
D|---4-4-4-4----2---x-2---2----------------|
A|-2----------0-----x-0--------------------|
E|-----------------------------------------|#/2t2##/2t1#

Bm                 A
   Beauty queen of only eighteen
    Bm                  A
She   had some trouble with herself
Bm                 A
   He was always there to help her
    Bm                    A
She   always belonged to someone else

Bm              A
   I drove for miles and miles
     Bm               A
And wound up at your door
Bm               A
   I've had you so many times but
 Bm             A
Somehow I want more

[Pré-Refrão]

#3t1#   D5(9)           A5
#3t2#E|-----x-----0-x-------x-------x-----------|
B|---3-x-----3-x-----2-x-----2-x-----------|
G|---2-x---2---x-----2-x-----2-x-----------|
D|-0---x-0-----x-0---2-x---2---x-----------|
A|-------------x---0---x-0-----x-0---------|
E|-----------------------------------------|#/3t2##/3t1#

#4t1#   Bm               A
#4t2#E|-----------------------------------------|
B|---3-x------3-x-----2-x-----2-x----------|
G|---4-x------4-x-----2-x-----2-x----------|
D|---4-x----4---x-----2-x---2---x----------|
A|-2---x--2-----x-2-0---x-0-----x-0--------|
E|-----------------------------------------|#/4t2##/4t1#

#5t1#   D5(9)           A
#5t2#E|-----x-----0-x-------x-------x-----------|
B|---3-x-----3-x-----2-x-----2-x-----------|
G|---2-x---2---x-----2-x-----2-x-----------|
D|-0---x-0-----x-0---2-x---2---x-----------|
A|-------------x---0---x-0-----x-0---------|
E|-----------------------------------------|#/5t2##/5t1#

#6t1#   Bm               G
#6t2#E|-----------------------------------------|
B|---3-x------3-x-----3--------------------|
G|---4-x------4-x-----0--------------------|
D|---4-x----4---x-----0--------------------|
A|-2---x--2-----x-2------------------------|
E|------------------3----------------------|#/6t2##/6t1#

D5(9)                       A
      I don't mind spending everyday
Bm                         A
Out on your corner in the pouring rain
D5(9)                              A
      Look for the girl with the broken smile
Bm                           G
   Ask her if she wants to stay awhile

[Refrão]

#7t1#   D5(9)           A
#7t2#E|-----x-----0-x-------x-------x-----------|
B|---3-x-----3-x-----2-x-----2-x-----------|
G|---2-x---2---x-----2-x-----2-x-----------|
D|-0---x-0-----x-0---2-x---2---x-----------|
A|-------------x---0---x-0-----x-0---------|
E|-----------------------------------------|#/7t2##/7t1#

#8t1#   Bm               G
#8t2#E|-----------------------------------------|
B|---3-x------3-x-----3--------------------|
G|---4-x------4-x-----0--------------------|
D|---4-x----4---x-----0--------------------|
A|-2---x--2-----x-2------------------------|
E|------------------3----------------------|#/8t2##/8t1#

         D5(9)   A
And she will be loved
     Bm      G
She will be loved

[Segunda Parte]

Bm                    A
   Tap on my window knock on my door
Bm                       A
I want to make you feel beautiful
Bm                A
I know I tend to get so insecure
Bm                A
It doesn't matter anymore

Bm                  A
   It's not always rainbows and butterflies
          Bm                    A
It's compromise that moves us along
Bm                          A
   My heart is full and my door's always open
         Bm               A
You can come anytime you want

[Pré-Refrão]

D5(9)                         A
      I don't mind spending everyday
Bm                         A
Out on your corner in the pouring rain
D5(9)                              A
      Look for the girl with the broken smile
Bm                           G
   Ask her if she wants to stay awhile

[Refrão]

         D5(9)   A
And she will be loved
     Bm      G
She will be loved

[Terceira Parte]

Bm                   A                  Bm
   I know where you hide alone in your car
                  A                          Bm
Know all of the things that make you who you are
                 A                   Bm
I know that goodbye means nothing at all
                           A
Comes back and begs me to catch her every time
        G
Sheeee... falls

Bm                    A
   Tap on my window knock on my door
Bm                       A
I want to make you feel beautiful

[Pré-Refrão]

D5(9)                         A
      I don't mind spending everyday
Bm                         A
Out on your corner in the pouring rain
D5(9)                              A
      Look for the girl with the broken smile
Bm                           G
   Ask her if she wants to stay awhile

[Refrão]

         D5(9)   A
And she will be loved
     Bm      G
She will be loved
Composición: Adam Levine / James Valentine / Jesse Carmichael / Mickey Madden / Ryan DusickColaboración y revisión: Thiago AlmeidaJoão CostaPaulo UrangaCaroline Leroyy más 5
videoclase She Will Be Loved (aula de violão completa)