Ainda Bem

Marisa Monte

A7
12
X02020
Bb/D
1234
X5X366
C
123
X32010
Dm
123
XX0231
Gm
34
355333
Tono: Dm
[Intro]

[Solo Intro]


   Dm
E|-----1-3-5-3h5p3-1--------------
B|--3--3-5-6-5-----3--------------
G|--2-----------------------------
D|--0-----------------------------
A|--0-----------------------------
E|--0-----------------------------


      Dm
Ainda bem
                       Bb/D
Que agora encontrei você
                  C
Eu realmente não sei
                      Dm    A7
O que eu fiz pra merecer você


Parte 1 de 4
   Dm
E|----------1-----1---1-----------
B|-------3--3-----3---3-----------
G|-----2----2-----2---2-----------
D|---0---0----0-0---0---0---------
A|--------------------------------
E|-0------------------------------



Parte 2 de 4
   Bb/D
E|----------1-----1---1-----------
B|-------3--3-----3---3-----------
G|-----3----3-----3---3-----------
D|---3---0----0-0---0---0---------
A|--------------------------------
E|-0------------------------------



Parte 3 de 4
   C
E|--------------------------------
B|-------3h5----------------------
G|-----5-----5-----5---5----------
D|---5-------5-----5---5----------
A|-3-----3-----3-3---3---3--------
E|--------------------------------



Parte 4 de 4
   Dm               A7
E|-------0h1p0--------------------
B|-------3-----3----------2-------
G|-----2---------2------0---0---0-
D|---0----------------2-----------
A|------------------0-----0---0---
E|-0------------------------------


[Primeira Parte]

            Dm
Porque ninguém
               Bb/D
Dava nada por mim
                          C
Quem dava, eu não tava a fim
              Dm     A7
Até desacreditei de mim


Parte 1 de 4
   Dm
E|-------0-0h1p0-1--------1------
B|-----3-3--------------3-3---3--
G|---2---2------------2---2---2--
D|-0----------------0------------
A|---------0-----0----------0--0-
E|-------------------------------

E|-----------| 
B|3----------| 
G|2----------| 
D|-----------| 
A|-----------| 
E|-----------| 



Parte 2 de 4
   Bb/D
E|--------------------------------
B|-------1-1h3p1-3--------3-------
G|-----3-3-3------------3-3---3---
D|---3---3------------3---3---3---
A|--------------------------------
E|-0-------0-----0--0-------0---0-

E|----------| 
B|----------| 
G|3---------| 
D|3---------| 
A|----------| 
E|----------| 



Parte 3 de 4
   C
E|--------------------------------
B|-------3-3h5p3-5--------5-------
G|-----5-5-5------------5-5---5---
D|---5---5------------5---5---5---
A|-3-------3-----3--3-------3---3-
E|--------------------------------

E|----------| 
B|----------| 
G|5---------| 
D|5---------| 
A|----------| 
E|----------| 



Parte 4 de 4
   Dm               A7
E|---------0h1p0------------------
B|-------3-------3--2-----2-------
G|-----2----------------0-----0---
D|---0----------------2-----------
A|------------------0-------0---0-
E|-0------------------------------

E|----------| 
B|----------| 
G|0---------| 
D|----------| 
A|----------| 
E|----------| 


[Segunda Parte]

Gm
O meu coração
                 A7
Já estava acostumado
 Gm
Com a solidão
                  A7
Quem diria que a meu lado

Parte 1 de 2 Gm E|-------3----------------3------- B|-------3----------------3------- G|-----3-3---3---3------3-3---3--- D|---5-------3---3----5-------3--- A|-------------------------------- E|-5-------5---5----5-------5---5- E|----------| B|----------| G|3---------| D|3---------| A|----------| E|----------| Parte 2 de 2 A7 E|-------0----------------0------- B|-------2----------------2------- G|-----0-0---0---0------0-0---0--- D|---2-------2---2----2-------2--- A|-0-------0---0----0-------0---0- E|-------------------------------- E|----------| B|----------| G|0---------| D|2---------| A|----------| E|----------| [Refrão] Dm Você iria ficar Bb/D Você veio pra ficar C Você que me faz feliz Dm A7 Você que me faz cantar, assim [Segunda Parte] Gm O meu coração A7 Já estava aposentado Gm Sem nenhuma ilusão A7 Tinha sido maltratado [Refrão] Dm Tudo se transformou Bb/D Agora você chegou C Você que me faz feliz Dm A7 Você que me faz cantar, assim Dm Na na na na Bb/D Na na na na na na na C Na na na na na na na Dm A7 Na na na na na na na... eh [Segunda Parte] Gm O meu coração A7 Já estava acostumado Gm Com a solidão A7 Quem diria que a meu lado [Refrão] Dm Você iria ficar Bb/D Você veio pra ficar C Você que me faz feliz Dm A7 Você que me faz cantar, assim [Segunda Parte] Gm O meu coração A7 Já estava aposentado Gm Sem nenhuma ilusão A7 Tinha sido maltratado [Refrão Final] Dm Tudo se transformou Bb/D Agora você chegou C Você que me faz feliz Dm A7 Você que me faz cantar, assim Dm Na na na na Bb/D Na na na na na na na C Na na na na na na na Dm A7 Na na na na na na na eh Dm Ainda bem Dm E|----1-3-5----------------------- B|----3-5-6----------------------- G|-------------------------------- D|--0----------------------------- A|-------------------------------- E|--------------------------------
Composición: Arnaldo Antunes / Marisa MonteColaboración y revisión: daniella calsLeandro SandimMarcos Buarquefabioy más 2
videoclase Ainda Bem (aula de violão completa)

Utilizamos cookies para personalizar sua experiência. Ao acessar o site, você concorda com a nossa Política de Privacidade.