Te Esperando

Mariana Nolasco

C9
34
X35533
Cm
234
X35543
G
123
320003
Tono: G
Solo Inicial:

#1t1##1t2#E|---------------------------------------------------|
B|-1/3-1-0h1p1---------------------------------------|
G|-------------0-------------------------------------|
D|---------------------------------------------------|
A|---------------------------------------------------|
E|---------------------------------------------------#/1t2##/1t1#

G
Mesmo que você não caia na minha cantada

Mesmo que você conheça outro cara
    C9
Na fila de um banco

Um tal de Fernando

Um lance, assim, sem graça

 G
Mesmo que vocês fiquem sem se gostar

Mesmo que vocês casem sem se amar
   C9
E depois de seis meses

Um olhe pro outro

E aí, pois é, sei lá

 G
Mesmo que você suporte este casamento

Por causa dos filhos, por muito tempo
 C9
Dez, vinte, trinta anos

Até se assustar com os seus cabelos brancos

    G
Um dia vai sentar numa cadeira de balanço

Vai lembrar do tempo que tinha vinte anos
 C9
Vai lembrar de mim e se perguntar

Por onde esse cara deve estar

Refrão:
            G
E eu vou estar
                                         C9
Te esperando nem que já esteja velhinha gagá
                                          G
Com noventa, viúva, sozinha não vou me importar
                                          C9
Vou ligar, te chamar pra sair namorar no sofá
                                       G
Nem que seja além dessa vida eu vou estar
        C9   Cm
Te esperando
          G
eu vou estar
        C9   Cm
Te esperando

Solo Final:

#2t1##2t2#E|---------------------------------------------------|
B|-1/3-1-0h1p1---------------------------------------|
G|-------------0-------------------------------------|
D|---------------------------------------------------|
A|---------------------------------------------------|
E|---------------------------------------------------#/2t2##/2t1#
Composición: Luan SantanaColaboración y revisión: Jharbas Lopes