Que Seja Pra Ficar

Mariana Nolasco

A
123
X02220
D9
12
XX0230
E
123
022100
Tono: G
[Intro] 

#1t1##1t2#E|------------------------------------------|
B|------------------------------------------|
G|-----6------6--------6-----6--------------|
D|---7------7----7---7-----7-----7----------|
A|-5------4----4---5-----4------------------|
E|-----------------------------7------------|#/1t2##/1t1#

#2t1##2t2#E|------------------------------------------|
B|------------------------------------------|
G|-----6------6--------6--------------------|
D|---7------7----7---7----------------------|
A|-5------4----4---5-----4---0--------------|
E|-------------------------7----------------|#/2t2##/2t1#

[Primeira Parte]

#3t1##3t2#E|------------------------------------------|
B|------------------------------------------|
G|-----6------6--------6-----6--------------|
D|---7------7----7---7-----7-----7----------|
A|-5------4----4---5-----4------------------|
E|-----------------------------7------------|#/3t2##/3t1#

#4t1##4t2#E|------------------------------------------|
B|------------------------------------------|
G|-----6------6--------6--------------------|
D|---7------7----7---7----------------------|
A|-5------4----4---5-----4---0--------------|
E|-------------------------7----------------|#/4t2##/4t1#

#5t1##5t2#E|------------------------------------------|
B|------------------------------------------|
G|-----6------6--------6-----6--------------|
D|---7------7----7---7-----7-----7----------|
A|-5------4----4---5-----4------------------|
E|-----------------------------7------------|#/5t2##/5t1#

D9
Esse teu coração
Que entrou bem devagar  
E
Ninguém nem percebeu
                A
Até ele se acomodar

D9
E ele chegou sem nem me avisar
                         E
E, de repente, quando eu vi
             A
Ele já tava lá

D9             E
Esse teu fico manso que me fez deixar
A
A paz que Deus me trouxe 
                   D9  E
É a paz que tu me dá

#6t1##6t2#E|------------------------------------------|
B|------------------------------------------|
G|-----6------6--------6-----6--------------|
D|---7------7----7---7-----7-----7----------|
A|-5------4----4---5-----4------------------|
E|-----------------------------7------------|#/6t2##/6t1#

#7t1##7t2#E|------------------------------------------|
B|------------------------------------------|
G|-----6------6--------6--------------------|
D|---7------7----7---7----------------------|
A|-5------4----4---5-----4---0--------------|
E|-------------------------7----------------|#/7t2##/7t1#

[Segunda Parte]

#8t1##8t2#E|------------------------------------------|
B|------------------------------------------|
G|-----6------6--------6-----6--------------|
D|---7------7----7---7-----7-----7----------|
A|-5------4----4---5-----4------------------|
E|-----------------------------7------------|#/8t2##/8t1#

#9t1##9t2#E|------------------------------------------|
B|------------------------------------------|
G|-----6------6--------6--------------------|
D|---7------7----7---7----------------------|
A|-5------4----4---5-----4---0--------------|
E|-------------------------7----------------|#/9t2##/9t1#

#10t1##10t2#E|------------------------------------------|
B|------------------------------------------|
G|-----6------6--------6-----6--------------|
D|---7------7----7---7-----7-----7----------|
A|-5------4----4---5-----4------------------|
E|-----------------------------7------------|#/10t2##/10t1#

D9                  E
Parece até mandinga ou canto de ourixá
A                   D9                       E
Que nem um navegante, nem ninguém já ouviu falar

D9            E
E era de xangô ou era de Iemanjá
A                        D9             E
E, de repente, quando eu vi ele já tava lá

D9             E
Esse teu fico manso que me fez deixar
A
A paz que Deus me trouxe 
                   D9  E
É a paz que tu me dá

A            D9       E
  Se for entrar, que seja pra ficar
A            D9
  E deixe estar
       E
O que for pra ser, será

D9             E
Esse teu fico manso que me fez deixar
A
A paz que Deus me trouxe 
                   D9  E
É a paz que tu me dá

#11t1##11t2#E|------------------------------------------|
B|------------------------------------------|
G|-----6------6--------6-----6--------------|
D|---7------7----7---7-----7-----7----------|
A|-5------4----4---5-----4------------------|
E|-----------------------------7------------|#/11t2##/11t1#

#12t1##12t2#E|------------------------------------------|
B|------------------------------------------|
G|-----6------6--------6--------------------|
D|---7------7----7---7----------------------|
A|-5------4----4---5-----4---0--------------|
E|-------------------------7----------------|#/12t2##/12t1#

[Terceira Parte]

#13t1##13t2#E|------------------------------------------|
B|------------------------------------------|
G|-----6------6--------6-----6--------------|
D|---7------7----7---7-----7-----7----------|
A|-5------4----4---5-----4------------------|
E|-----------------------------7------------|#/13t2##/13t1#

#14t1##14t2#E|------------------------------------------|
B|------------------------------------------|
G|-----6------6--------6--------------------|
D|---7------7----7---7----------------------|
A|-5------4----4---5-----4---0--------------|
E|-------------------------7----------------|#/14t2##/14t1#

#15t1##15t2#E|------------------------------------------|
B|------------------------------------------|
G|-----6------6--------6-----6--------------|
D|---7------7----7---7-----7-----7----------|
A|-5------4----4---5-----4------------------|
E|-----------------------------7------------|#/15t2##/15t1#
D9
Esse teu coração
Que entrou bem devagar
 E
Ninguém nem percebeu
                 A
Até ele se acomodar

D9
E ele chegou sem nem me avisar
                          E
E, de repente, quando eu vi
             A
Ele já tava lá

D9             E
Esse teu fico manso que me fez deixar
A
A paz que Deus me trouxe 
                   D9  E
É a paz que tu me dá

A            D9       E
  Se for entrar, que seja pra ficar
A            D9
  E deixe estar
       E
O que for pra ser, será

A            D9       E
  Se for entrar, que seja pra ficar
A            D9
  E deixe estar
       E
O que for pra ser, será

[Final]

#16t1##16t2#E|------------------------------------------|
B|------------------------------------------|
G|-----6------6--------6-----6--------------|
D|---7------7----7---7-----7-----7----------|
A|-5------4----4---5-----4------------------|
E|-----------------------------7------------|#/16t2##/16t1#

#17t1##17t2#E|------------------------------------------|
B|------------------------------------------|
G|-----6------6--------6--------------------|
D|---7------7----7---7----------------------|
A|-5------4----4---5-----4---0--------------|
E|-------------------------7----------------|#/17t2##/17t1#

( A )
Composición: Pedro PascualColaboración y revisión: Marcos PauloIsadora FloresMariana Nolasco