Id Breathe For You

Magnum

Tono: G
Tabbed by: Andy (yalaki)
Email: *


Very easy to play and the solo isn't
 too hard.

Song is comprised of:

4 riffs, 1 fill and 1 solo

for the guitar (all tabbed below).


Tuning: Standard


Riff 1 (intro and verses):


e|--------------------------------
B|------------7--8--7-------------
G|---6--7--9-----------7---9---9--
D|--------------------------------
A|--------------------------------
E|--------------------------------

e|-----------------------| 
B|-----------------------| 
G|9----7----7---7--------| 
D|-----------------------| 
A|-----------------------| 
E|-----------------------| 


Riff 2 (intro and verses):


e|--------------------------------
B|--------------------------------
G|--------------7---7-------------
D|---7---7------7---7------7---7--
A|---7---7------5---5------7---7--
E|---5---5-----------------5---5--

e|----------------------| 
B|----------------------| 
G|-----7---7------------| 
D|-----7---7------------| 
A|-----5---5------------| 
E|----------------------| 


Riff 3 (chorus):


e|-------------------------| 
B|-------------------------| 
G|---7-----5----------7----| 
D|---7-----5----------7----| 
A|---5-----3----------5----| 
E|-------------------------| 


Riff 4 (played during solo):


e|-----------------------| 
B|-----------------------| 
G|-----9-----7---6---4---| 
D|-----7-----5---4---2---| 
A|-----------------------| 
E|-----------------------| 


Fill 1 (end of chorus - first time 
only):


e|--------------------------| 
B|--------------------------| 
G|--------------------------| 
D|--------------------------| 
A|--------------------------| 
E|---3-2-0----3-2-0---2-3---| 






******
Intro:
******

Guitar 1: Riff 1 x3 Guitar 2: Riff 2 x3 ******** Verse 1: ******** "I'll take you where you've never been..." Guitar 1: Riff 1 x4 (lower in mix) Guitar 2: Riff 2 x4 ******* Chorus: ******* "I'd breathe for you..." Guitar 1: Riff 3 x4 -> at end of chorus play Fill 1. ******** Verse 2: ******** Guitar 1: Riff 1 x1 (solo) Guitar 2: tacet "I'd give you everything you need..." Guitar 1: Riff 1 x4 (Lower in mix) Guitar 2: Riff 2 x4 ******* Chorus: ******* "I'd breathe for you..." Guitar 1: Riff 3 x4 ******* Bridge: ******* "You can get far in this life..." Guitars: Tacet (Piano only) ************ Guitar solo: ************ e|-------------------------------- B|-------------------------------- G|----12-12-12-14-14-14--12-11---- D|-----------------------------14- A|-------------------------------- E|-------------------------------- e|---------------------------------- B|---------------------------------- G|---------------------------------- D|-13-12-10-12~~~~~----------------- A|---------------------------------- E|---------------------------------- e|------------------------------ B|------------------------------ G|----------12------------------ D|----12/14----14-12-10---12-10- A|------------------------------ E|------------------------------ e|-------------15------24b26r24b26r24----------| B|----------13---------------------------13----| G|-------12------------------------------------| D|---------------------------------------------| A|12-------------------------------------------| E|---------------------------------------------| e|-------------------------------- B|-------------------------------- G|----12-12-12-14-14-14--12-11---- D|-----------------------------14- A|-------------------------------- E|-------------------------------- e|---------------------------------- B|---------------------------------- G|---------------------------------- D|-13-12-10-12~~~------------------- A|---------------------------------- E|---------------------------------- e|------------------------------ B|------------------------------ G|----------12------------------ D|----12/14----14-12-10---12-10- A|------------------------------ E|------------------------------ e|---------------------------------------------| B|-------------13------------------------------| G|-------12-12----14~~-------------------------| D|---------------------------------------------| A|12-------------------------------------------| E|---------------------------------------------| Rhythm Guitar Joins here: Riff 4 x2 e|-------------------------------- B|-------------------------------- G|---12h14-14-14-12-12-11-11-9---- D|-------------------------------- A|-------------------------------- E|-------------------------------- e|-------------------------------- B|----5-5-----5-5-----5-5-----5-5- G|7b9-----7b9-----7b9-----7b9----- D|-------------------------------- A|-------------------------------- E|-------------------------------- e|-----------| B|----5-5----| G|7b9--------| D|-----------| A|-----------| E|-----------| e|-------------------------------- B|---10-10---10-8-8-7-7----------- G|-----------------------9----7b9- D|-------------------------------- A|-------------------------------- E|-------------------------------- e|---------------------------------- B|5-5-----5-5-----5-5-----5-5-----5- G|----7b9-----7b9-----7b9-----7b9--- D|---------------------------------- A|---------------------------------- E|---------------------------------- e|---------| B|5--------| G|---------| D|---------| A|---------| E|---------| ******* Chorus: ******* "I'd breathe for you..." Guitar 1: Riff 3 - repeat to end and fade out | / slide up | \ slide down | h hammer-on | p pull-off | ~ vibrato | + harmonic | x Mute note | b Bend note | r Release bend | pb Prebend note ===============================================================================
Composición: Colaboración y revisión: